Log in

One click and you are in

Login with Facebook Login with Google

Why sign up and log in

Guitar Tabs Explorer
Robin Thicke bass tabs for Teach u a lesson

Bass tabs

Tuning: Standard (E A D G)


Intro:
G|---------------------------------------------------------------------------|
D|----------5---5---4--------------------5----------5---5--4-----------------|
A|--------5---------------------------5-----5-----5-----------------------7--|
E|---3------------------9-8-7----5--4-----------3----------------9-8-7---5---|

G|---------------------------------------------------------------------------|
D|----------5---5---4--------------------5----------5---5--4-----------------|
A|--------5---------------------------5-----5-----5-----------------------7--|
E|---3------------------9-8-7----5--4-----------3----------------9-8-7---5---|

Verse 1:
Rest


Chorus:
G|---------------------------------------------------------------------------|
D|----------5---5---4--------------------5----------5---5--4-----------------|
A|--------5---------------------------5-----5-----5-----------------------7--|
E|---3------------------9-8-7----5--4-----------3----------------9-8-7---5---|

G|---------------------------------------------------------------------------|
D|----------5---5---4--------------------5----------5---5--4-----------------|
A|--------5---------------------------5-----5-----5-----------------------7--|
E|---3------------------9-8-7----5--4-----------3----------------9-8-7---5---|


Verse 2:
Rest 4 bars

G|---------------------------------------------------------------------------|
D|----------5---5---4--------------------5----------5---5--4-----------------|
A|--------5---------------------------5-----5-----5-----------------------7--|
E|---3------------------9-8-7----5--4-----------3----------------9-8-7---5---|

G|---------------------------------------------------------------------------|
D|----------5---5---4--------------------5----------5---5--4-----------------|
A|--------5---------------------------5-----5-----5-----------------------7--|
E|---3------------------9-8-7----5--4-----------3----------------9-8-7---5---|


Chorus:
G|---------------------------------------------------------------------------|
D|----------5---5---4--------------------5----------5---5--4-----------------|
A|--------5---------------------------5-----5-----5-----------------------7--|
E|---3------------------9-8-7----5--4-----------3----------------9-8-7---5---|

G|---------------------------------------------------------------------------|
D|----------5---5---4--------------------5----------5---5--4-----------------|
A|--------5---------------------------5-----5-----5-----------------------7--|
E|---3------------------9-8-7----5--4-----------3----------------9-8-7---5---|

G|---------------------------------------------------------------------------|
D|----------5---5---4--------------------5----------5---5--4-----------------|
A|--------5---------------------------5-----5-----5-----------------------7--|
E|---3------------------9-8-7----5--4-----------3----------------9-8-7---5---|

G|---------------------------------------------------------------------------|
D|----------5---5---4--------------------5----------5---5--4-----------------|
A|--------5---------------------------5-----5-----5-----------------------7--|
E|---3------------------9-8-7----5--4-----------3----------------9-8-7---5---|


Bridge:
G|---------------------------------------------------------------------------|
D|----------5---5---4--------------------5----------5---5--4-----------------|
A|--------5---------------------------5-----5-----5-----------------------7--|
E|---3------------------9-8-7----5--4-----------3----------------9-8-7---5---|

G|---------------------------------------------------------------------------|
D|----------5---5---4--------------------5----------5---5--4-----------------|
A|--------5---------------------------5-----5-----5-----------------------7--|
E|---3------------------9-8-7----5--4-----------3----------------9-8-7---5---|

G|---------------------------------------------------------------------------|
D|----------5---5---4--------------------5----------5---5--4-----------------|
A|--------5---------------------------5-----5-----5-----------------------7--|
E|---3------------------9-8-7----5--4-----------3----------------9-8-7---5---|

G|---------------------------------------------------------------------------|
D|----------5---5---4--------------------5----------5---5--4-----------------|
A|--------5---------------------------5-----5-----5-----------------------7--|
E|---3------------------9-8-7----5--4-----------3----------------9-8-7---5---|


Outro:
Rest

Almost there ...

Sign in to get your own page with links to favourite songs and more. You are just one click away...

Login with Facebook Login with Google