Log in

One click and you are in

Login with Facebook Login with Google

Why sign up and log in

Guitar Tabs Explorer
Robin Thicke chords for Cry no more

Guitar chords

Intro

        A chord diagramDmaj7Dmaj7                A chord diagramAmaj7Amaj7
      x x 0 6 7 5          x 0 6 6 5 0
vERSE

        Dmaj7/f6             Amaj7/c6
      x x 0 2 1 1          x 0 2 0 1 X


cHORUS

        A chord diagramDmaj7Dmaj7                A chord diagramAmaj7Amaj7
      x x 0 3 3 3          x 0 2 1 2 0


-------------------------------------------------

(E A D G B E) - 'Standard'


Intro

A chord diagramE MajorE|-5----------------0----------------|
A chord diagramBB|-7----------------5----------------|
A chord diagramG+G|-6----------------6----------------|
A chord diagramD MajorD|-0----------------6----------------|
A chord diagramA augmentedA|------------------0----------------|
A chord diagramE MajorE|-----------------------------------|

If you listen here you'll notice he lifts his finger off the top string on the last
strum of the first chord before the change and plays the string open.


Verse

|-1---------------------------------|
|-1----------------1----------------|
|-2----------------0----------------|
|-0----------------2----------------|
|------------------0----------------|
|-----------------------------------|



Chorus

|-3----------------0----------------|
|-3----------------2----------------|
|-3----------------1----------------|
|-0----------------2----------------|
|------------------0----------------|
|-----------------------------------|

Almost there ...

Sign in to get your own page with links to favourite songs and more. You are just one click away...

Login with Facebook Login with Google