Log in

One click and you are in

Login with Facebook Login with Google

Why sign up and log in

Guitar Tabs Explorer
Robin Thicke bass tabs for Blurred lines

Bass tabs

Tuning: Standard tuning


Intro:

	G----------|
	D--5-5-5---|
	A----------|
	E----------|


All Verses + Chorus
	G------------5-----------------------------------------|
	D--5---5-5-----5-5-------3-5----5-5--------------------|
	A----------------------5------------5---5-5-----5-5----|
	E------------------------------------------------------|

	G-------7\--5\--0\--2--|
	D----------------------|
	A---5-5---3---2---0----|
	E----------------------|

Repeat ad infinitum.
These notes are played staccato, except for the
descending octaves at the end of the main riff -
these notes are legato.


NOTE: There is a 4 measure break in the bass line after
   T.I.'s part.

Almost there ...

Sign in to get your own page with links to favourite songs and more. You are just one click away...

Login with Facebook Login with Google