Log in

One click and you are in

Login with Facebook Login with Google

Why sign up and log in

Guitar Tabs Explorer
They Might Be Giants bass tabs for Till my head falls off

Till My Head Falls Off bass tab by They Might Be Giants

They Might Be Giants bass tabs for Till my head falls off

Bass tabs with lyrics

Till My Head Falls Off By They Might Be Giants


G---||------------------------0--0--0--0--0-----------------------0-----
D---||*-----------2--2--3--3-----------------2--2--3--2--3--2--3--------
A---||*--3--3--3--------------------------------------------------------
E---||------------------------------------------------------------------
             Main Riff and Chorus
G------------0-----------------------------0--2--0--2--0----------------
D---3--2--3-----3--2-----------2--2--3--3-----------------2--3--2--3----
A---------------------3--3--3-------------------------------------------
E-----------------------------------------------------------------------


G---------0-----------0---||--------------------------------------------
D---2--3-----3--2--3-----*||--------------------------------------------
A------------------------*||--3--3--3--3--2--2--2--2--------------------
E-------------------------||--------------------------------------------


  Pre-Pre-Chorus: "Why do Main Riff again
G------------------------|--------------------------|-------------------
D------------------------|--------------------------|-------------------
A------------------------|--------------------------|-------------------
E---3--3--3--3--1--1--1--|--------------------------|--3--3--3--3--1----


                    Main riff
G------------------------------------|-----------------|----------------
D------------------------------------|-----------------|----------------
A------------------------------------|-----------------|--3-------------
E---1--1--1--3--3--3--3--1--1--1--1--|-----------------|----------------

  "And I won't be...   One again, The main riff
G------------------------|--------------------------------|-------------
D------------------------|--------------------------------|-------------
A---3--1--1--3--3--------|--------------------------------|-------------
E------------------3--3--|--------------------------------|-------------


  You can pretty much pick up the rythm
G-----------------------------------------------------------------------
D-----------------------------------------------------------------------
A-----------------------------------------------------------------------
E-----------------------------------------------------------------------


  of things now                      solo
G---------------------|-------------------------------------------------
D---------------------|-----------------------3--3--3--3--1--1--1--1----
A---------------------|--2--3--3--3--2--3--3----------------------------
E---------------------|-------------------------------------------------


G------------------------------------------------|----------------------
D---------------------------6--6--6--6--5--5--5--|----------------------
A---4--5--5--5--4--5--5--5-----------------------|----------------------
E------------------------------------------------|----------------------




==            TABLATURE EXPLANATION            ==


----------        ----------        ----t---
----5h8--- Hammeron    ----(8)--- Ghost     ----6--- Tap
----------        ---------- Note      --------
----5p8--- Pulloff    ----------        --------

----------        ----------        -----p--
----5/8--- Slide Up    -----x---- Dead      -----7-- Pop
----------        ---------- Note      --s-----
----5\8--- Slide Down   ----------        --5----- Slap

----------        ||------|| Repeat     --------
----5~~~-- Vibrato    ||*----*||        ---5^--- Bend
----------        ||*----*||        --------
----------        ||------||        --------

----------        ----------        --------
-4:------- Time      ----------        --------
-4:------- Signature   ----------        --------
----------        ----------        --------

Rhythm:
 w = whole note      W = dotted whole
 h = half note       H = dotted half
 q = quarter note     Q = dotted quarter
 e = eighth note      E = dotted eighth
 s = sixteenth note    S = dotted sixteenth
 t = 32nd note       T = dotted 32nd
 x = 64th note       X = dotted 64th
 ^ = triplet


==   Created with TABESTRY Tab Creation Software for Windows    ==
==        For more info email gse@ocsystems.com        ==

Almost there ...

Sign in to get your own page with links to favourite songs and more. You are just one click away...

Login with Facebook Login with Google