Log in

One click and you are in

Login with Facebook Login with Google

Why sign up and log in

Guitar Tabs Explorer
They Might Be Giants bass tabs for Lie still little bottle

Lie Still Little Bottle bass tab - They Might Be Giants

They Might Be Giants bass tabs for Lie still little bottle

Bass tabs with lyrics

From cbray@comp.uark.edu Fri Apr 18 10:29:37 1997


>Organization: National Council of the Cerebrally Present
>X-Originating-IP-Addr: 146.186.203.138 (ADA108.rhbr.psu.edu)
>X-Http-User-Agent: Mozilla/2.0 (Win16; I)
>Lines: 44

BTAB: "Lie Still Little Bottle" by They Might Be Giants
from the album Lincoln
transcribed by Andy Adelewitz (ada108@psu.edu)

I only have this on a bootleg, so it may be a little different from the
album version. I think it may be the only song I've ever transcribed
or even played that's written in Bb minor. Here's bass tab for the horn
part:

Verses:

G-|-------------------------------------------------------|
D-|-------------------------------------------------------|
A-|-1-4-3-6-8881-4-3-6-8881-4-3-6-888sl13-13p11-11p9-9p8--|
E-|-------------------------------------------------------|


Chorus:


G-|-------------------------------------------------------|
D-|-------------------------------------------------------|
A-|-1--/8-6-4-6-4--------1--/8-6-4-6---8-8----------------|
E-|---------------1---------------------------------------|


G-|-------------------------------------------------------|
D-|-------------------------------------------------------|
A-|-1--/8-6-4-6-4--------1-4-3-2--------------------------|
E-|---------------1---------------------------------------|

Weird garbled part, just one note kinda picked at random:

A-|--7--|

Outro:

G-|-------------------------------------------------------|
D-|-------------------------------------------------------|
A-|-1-4-3-2-1-4-3-2-1-4-3-2-1--etc.-----------------------|
E-|-------------------------------------------------------|

-------------------==== Posted via Deja News ====-----------------------
   http://www.dejanews.com/   Search, Read, Post to Usenet

Almost there ...

Sign in to get your own page with links to favourite songs and more. You are just one click away...

Login with Facebook Login with Google