Log in

One click and you are in

Login with Facebook Login with Google

Why sign up and log in

Guitar Tabs Explorer
They Might Be Giants tabs for If i wasnt shy

Guitar tabs

-  I A chord diagramFF  I  W A chord diagramA augmentedA S N T  S H Y  -
                          They Might Be Giants
                  Words and Music by Linnell/Flansburgh
Intro:
~~~~~~
|----------------------------------------|
|------3---------------------------------|
|--------1-------------------------------|
|--2--------1----0-----------------------|
|------------------4---------------------|
|--------------------3----4--5--7--------|


     A chord diagramE7E7   A chord diagramE7/BE7/B   A chord diagramA7A7  A chord diagramB7B7     A chord diagramE7E7  A chord diagramE7/BE7/B  A chord diagramA7A7  A chord diagramB7B7
If I,                wasn't Shy


A chord diagramA7A7 A chord diagramD#9D#9


chorus:
A chord diagramE7E7  A chord diagramEb7Eb7 A chord diagramA7A7 A chord diagramB7B7

A chord diagramD7D7 A chord diagramDb7Db7 A chord diagramB7B7


It sounds Great, depends on how you make the 7ths....


=-=-=-=-=-=-=-=-=-=-=-=-=-=-=-=-=-=-=-=-=-=-=-=-=-=-=-=-=-=-=-=-=-=-=-=
          A chord diagramFF i S h  - Current Adress: polivier@jrv.qc.ca
 Comments/Corrections/Other TMBG's/I Want Bootlegs! Please Email me!!!
=-=-=-=-=-=-=-=-=-=-=-=-=-=-=-=-=-=-=-=-=-=-=-=-=-=-=-=-=-=-=-=-=-=-=-=
See ya!

Almost there ...

Sign in to get your own page with links to favourite songs and more. You are just one click away...

Login with Facebook Login with Google