Log in

One click and you are in

Login with Facebook Login with Google

Why sign up and log in

Guitar Tabs Explorer
Therapy? tabs for Nausea

Guitar tabs

Nausea

                                    by

                                  THERAPY?

transcribed by Jonathan Garvin(Jgarvin@its.dundee.ac.uk)

   let ring
---0---
---5---


Riff A chord diagramA augmentedA
------------------------------------------|
------------------------------------------|
-9-9-9-------10-10-10----------10-10-10---|   - X4
-9-9-9-9-9-9-10-10-10-10-10-10-10-10-10---|
-7-7-7-9-9-9--8--8--8-10-10-10--8--8--8---|
-------7-7-7-----------8--8--8------------|


Riff A chord diagramBB
-------------------------------------------------|
-------------------------------------------------|
-----9--------------10---------------------------|    -X8
---9--------9----10---------10-----10------10----|
-7--------9----8---------10----------------------|
--------7--------------8--------8-------8--------|


Riff A chord diagramA augmentedA X4

Riff A chord diagramBB X8

    A chord diagramE MajorE             A chord diagramFF
------9-10-9---9----9-10-9---9-| a
----7--------7----8--------8---| e    X8  (Actually played on Bass)


Riff A chord diagramA augmentedA X8

-------------------------------------10--|
-------------------------------------10--|
-9-9-9---------10------9-9-9---------10--|    - X2
-9-9-9--9-9-9--10------9-9-9--9-9-9--10--|
-7-7-7--9-9-9---8------7-7-7--9-9-9---8--|
--------7-7-7-----------------7-7-7------|


------------|
------------|
------------|
---10--9----|
---10--9----|
----8--7----|


 -------------------------------------------
| Jonathan Garvin(jgarvin@its.dundee.ac.uk) |
 -------------------------------------------

Almost there ...

Sign in to get your own page with links to favourite songs and more. You are just one click away...

Login with Facebook Login with Google