Log in

One click and you are in

Login with Facebook Login with Google

Why sign up and log in

Guitar Tabs Explorer
Therapy? tabs for Misery

Guitar tabs

Therapy? - Misery

			tab by Steven Garvin <srgarvin@its.dundee.ac.uk>

Dropped A chord diagramD MajorD Tuning

Main Riff:
-------------------------------------
-------------------------------------
-------------------------------------
--7-7-5-7-----5-5-5-5-5--3-2-3-2-3-5-
--7-7-5-7-----5-5-5-5-5--3-2-3-2-3-5-
--7-7-5-7-----5-5-5-5-5--3-2-3-2-3-5-


Chorus:
				       *          repeat from * four times
---------|----------|----------|---------------3-|
---------|----------|----------|---------------3-|
---------|--------9-|----------|-----------------|
-3--5--7-|--3--5--9-|-3--5--7--|-3--5--7-7-5-7---|
-3--5--7-|--3--5--7-|-3--5--7--|-3--5--7-7-5-7---|
-3--5--7-|--3--5----|-3--5--7--|-3--5--7-7-5-7---|


Bridge:

-------------------------------
-------------------------------
-5----------------5------------
-5--5--6-7--2--3--5--7--5--3---
-3--5--6-7--2--3--3--7--5--3---
----5--6-7--2--3-----7--5--3---

---------3-
---------3-
-----------   times two
-7-7-5-7---
-7-7-5-7---
-7-7-5-7---

---------3-3-3-3-3-
---------3-3-3-3-3-
-------------------
-7-7-5-7-----------
-7-7-5-7-----------
-7-7-5-7-----------

Almost there ...

Sign in to get your own page with links to favourite songs and more. You are just one click away...

Login with Facebook Login with Google