Log in

One click and you are in

Login with Facebook Login with Google

Why sign up and log in

Guitar Tabs Explorer
Theory Of A Deadman guitar chords for Make up your mind

Guitar chords with lyrics

I'm supprised that there was no tab for Theory of a Deadman
so I took it upon myself to tab there lastest release "Make up
your Mind" i don't know alot about the band, I just know they
play my kind of music, and I like it. This is my first tab
that I have Posted. Oh, i'm not sure if he's got a 7 string,
but at some parts it sounds like a 7string guitar or
5 String Base guitar. I have a 6 so this is how I play it

Tabbed by:Steve Miller(jetblackguitar@hotmail.com)

Drop A chord diagramD MajorD tuning - just the A chord diagramE MajorE string dropped.
Strumming is ez to figure out.
here's the chords:


Intro:(Clean)
Start struming on "make up you MIND(B2)..."
     B2         A chord diagramA augmentedA+9         A chord diagramE11E11         A chord diagramA augmentedA+9          A chord diagramD MajorD

E----2-----------x-----------x------------x----------x----x-------
B----2-----------2-----------x------------2----------x----x-------
G----4-----------4-----------4------------4----------2----4-------
D----4-----------2-----------2------------2----------4----6-------
A----2-----------0-----------2------------0----------5----7-------
D----x-----------x-----------2------------x----------0~------------

Reapeat 2x on last time end on A chord diagramA augmentedA+9
then:(Gradual Distortion)
"Sit back and realax......"
Mute:
E-----------------------------------------------------------
B-----------------------------------------------------------
G-----------------------------------------------------------
D-----0--------------------------------------------2----------
A-----0--------------------------------------------2----------
D-----0--------------------------------------------2----------

Chours: (Distorted) 1st & 2nd part 2x
2 parts, play this up to "If we break up..."

1st:
    B2

E----2-------------------------------------------------------
B----2-------------------------------------------------------
G----4-------------------------------------------------------
D----4---------------0---------------2-------------------------
A----2---------------0---------------2-------------------------
D----x---------------0---------------2-------------------------

2nd: 2 variations, this is the part where it sounds like a 7 string
or 5 string base.(with a 7 string it could be a low c, making these
chords possible to have the low A chord diagramD MajorD or A chord diagramE MajorE by just baring the whole fret.)
"if we break up, we'll..."
     B2	       A chord diagramC#C#         D2 or A chord diagramD MajorD     E2 or  A chord diagramE MajorE
E----2----------x----------5----------7--------------------------
B----2----------4----------5----------7--------------------------
G----4----------6----------7----------9--------------------------
D----4----------6----------7----0-----9-----2--------------------
A----2----------4----------5----0-----7-----2--------------------
D----x----------x----------x----0-----x-----2--------------------


Before Solo:(constant struming)

    B2 		A chord diagramD MajorD           A chord diagramE MajorE
E---2--------------------------------------------------------
B---2--------------------------------------------------------
G---4--------------------------------------------------------
D---4-----------0-----------2----------------------------------
A---2-----------0-----------2----------------------------------
D---x-----------0-----------2----------------------------------


SOLO:In Progess

Other versions of Make Up Your Mind

Make up your mind acousticChords

Almost there ...

Sign in to get your own page with links to favourite songs and more. You are just one click away...

Login with Facebook Login with Google