Log in

One click and you are in

Login with Facebook Login with Google

Why sign up and log in

Guitar Tabs Explorer
Them Crooked Vultures bass tabs for Nobody loves me and neither do i

Nobody Loves Me And Neither Do I bass tab - Them Crooked Vultures

Them Crooked Vultures bass tabs for Nobody loves me and neither do i

Bass tabs

G|----------------------------|
D|5-5-6-7-----7-7-6h7p6p5-----|
A|-------------------------0--|x8
E|-------------------------5--|

G|--------------------  ---------------------|
D|--------------------  ---------------------|
A|7-7-5-7----5-5-5-5--x3 ---------------------|
E|--------------------  7-7-7-7\----5-5-5-5--|

Come back in at 01:15

G|----------------------------|
D|5-5-6-7-----7-7-6h7p6p5-----|
A|-------------------------0--|x7
E|-------------------------5--|

G|--------------------  ---------------------|
D|--------------------  ---------------------|
A|7-7-5-7----5-5-5-5--x3 ---------------------|
E|--------------------  7-7-7-7\----5-5-5-5--|

Come back in at 02:22

G|----------------------------------------------|
D|7-5-7-5-7-5------------6-5-6-5-6-5------------|
A|-------------3-0-3-0~---------------7-5-7-5~--|x3
E|----------------------------------------------|

G|-------------------------------------------|
D|7-5-7-5-7-5------------6-5-6-5-6-5---------|
A|-------------3-0-3-0~---------------7-5~~--|
E|-------------------------------------------|

HUH!
G|------------|
D|----5h6h7\--|
A|3-0---------|x32
E|------------|


G|------8h9h10--------10h11h12-----------------------------------|
D|----------------------------------5h6h7------5h6h7------5h6h7--|
A|6h7h8--------8h9h10-----------3-0--------3-0--------3-0--------|
E|---------------------------------------------------------------|

G|------------------------------------------------------|
D|5h6h7------5h6h7-----5h6h7----------5h6h7------5h6h7--|
A|------3-0-------3-0--------3-0--3-0--------3-0--------|
E|------------------------------------------------------|

G|------------------------------------------------------------------|
D|----5h6h7--5h6h7------5h6h7------5h6h7----------5h6h7------5h6h7--|
A|3-0--------------3-0--------3-0--------3-0--3-0--------3-0--------|x2
E|------------------------------------------------------------------|

G|--------------------------------------------|
D|----5h6h7--5h6h7------5h6h7------5h6h7------|
A|3-0--------------3-0--------3-0--------3-0--|
E|--------------------------------------------|

x2

G|------5h6h7--  ------5h7p5--|
D|-------------  -------------|
A|3h4h5--------x3 3h4h5--------|
E|-------------  -------------|

x2

G|----7h8p5--  ----7h8p7h8--|
D|-----------  -------------|
A|3-0--------x3 3-0----------|
E|-----------  -------------|

x2

G|-----------------------------------------------------------------|
D|7-5-7-5-7-5-7-5-----------------6-5-6-5-6-5-6-5------------------|
A|----------------3-0-3-0-3-0-3-0-----------------7-5-7-5-7-5-7-5--|
E|-----------------------------------------------------------------|

G|----------------------------------------------------|
D|7-5-7-5-7-5-7-5-----------------6-5-6-5-6-5-6-5-----|
A|----------------3-0-3-0-3-0-3-0-----------------7\--|

Almost there ...

Sign in to get your own page with links to favourite songs and more. You are just one click away...

Login with Facebook Login with Google