Log in

One click and you are in

Login with Facebook Login with Google

Why sign up and log in

Guitar Tabs Explorer
Them bass tabs for Its all over now baby blue

Bass tabs

them/it's_all_over_now_baby_blue.btab

Basstab by Jan Bjorklund, Finland;
[email protected]
You are welcome to request for basstabs!
Bienvenidos a pedirme transcripciones para el bajo!
Be sure to use a monospaced font!

TablEdited by Jan Bjorklund for Horst

Tuning : E A D G 	Time Signature: 4/4

 tempo 107    |    |    |    |    |    |
|----------------------------0---|2-----------2---------------0---|
|------------------------2-------|------------------------2-------|
|--------------------------------|--------------------------------|
|--------------------------------|--------------------------------|

 |    |    |    |    |    |    |    |
|2-----------2-----------2---0---|--------------------------------|
|--------------------------------|0-----------0-------------------|
|--------------------------------|----------------------------3---|
|--------------------------------|------------------------4-------|

 |    |    |    |    |    |    |    |
|--------------------------------|2-----------2---------------0---|
|0-----------0-----------0---2---|------------------------2-------|
|--------------------------------|--------------------------------|
|--------------------------------|--------------------------------|

 |    |    |    |    |    |    |    |
|2-----------2-----------2---0---|--------------------------------|
|--------------------------------|0-----------0-------------------|
|--------------------------------|----------------------------3---|
|--------------------------------|------------------------4-------|

 |    |    |    |    |    |    |    |
|--------------------------------|2-----------2---------------0---|
|0-----------0-------------------|------------------------2-------|
|----------------------------3---|--------------------------------|
|------------------------4-------|--------------------------------|

 |    |    |    |    |    |    |    |
|2-----------2-----------2---0---|--------------------------------|
|--------------------------------|0-----------0-------------------|
|--------------------------------|----------------------------3---|
|--------------------------------|------------------------4-------|

 |    |    |    |    |    |    |    |
|--------------------------------|2-----------2---------------0---|
|0-----------0-------------------|------------------------2-------|
|----------------------------3---|--------------------------------|
|------------------------4-------|--------------------------------|

 |    |    |    |    |    |    |    |
|2-----------2-----------2---0---|--------------------------------|
|--------------------------------|0-----------0-------------------|
|--------------------------------|----------------------------3---|
|--------------------------------|------------------------4-------|

 |    |    |    |    |    |    |    |
|--------------------------------|--------------------------------|
|0-----------0---------------0---|2-----------2-----------2---2---|
|------------------------3-------|--------------------------------|
|--------------------------------|--------------------------------|

 |    |    |    |    |    |    |    |
|0-----------0-----------0-------|--------------------------------|
|--------------------------------|0-----------0-------------------|
|--------------------------------|----------------------------3---|
|--------------------------------|------------------------4-------|

 |    |    |    |    |    |    |    |
|--------------------------------|--------------------------------|
|0-----------0-----------0-------|2-----------2-----------2---2---|
|----------------------------3---|--------------------------------|
|--------------------------------|--------------------------------|

 |    |    |    |    |    |    |    |
|0-----------0-----------0-------|--------------------------------|
|--------------------------------|0-----------0-------------------|
|--------------------------------|----------------------------3---|
|--------------------------------|------------------------4-------|

 |    |    |    |    |    |    |    |
|--------------------------------|--------------------------------|
|0-----------0-------------------|4-----------4-----------4-------|
|----------------------------3---|--------------------------------|
|------------------------4-------|--------------------------------|

 |    |    |    |    |    |    |    |
|--------------------------------|2-----------2-----------2-------|
|4-----------4-----------4-------|--------------------------------|
|--------------------------------|--------------------------------|
|--------------------------------|--------------------------------|

 |    |    |    |    |    |    |    |
|2-------2-------2---2---2---2---|--------------------------------|
|--------------------------------|2-----------2-----------2-------|
|--------------------------------|--------------------2-----------|
|--------------------------------|--------------------------------|

 |    |    |    |    |    |    |    |
|0-----------0-----------0-------|--------------------------------|
|--------------------0-----------|0-----------0-------------------|
|--------------------------------|------------------------3---3---|
|--------------------------------|--------------------4-----------|

 |    |    |    |    |    |    |    |
|--------------------------------|--------------------------------|
|0-----------0-------------------|2-----------2-----------2---2---|
|----------------------------3---|--------------------------------|
|------------------------4-------|--------------------------------|

 |    |    |    |    |    |    |    |
|2-----------2-----------2---0---|--------------------------------|
|--------------------2-----------|0-----------0-------------------|
|--------------------------------|--------------------------------|
|--------------------------------|------------------------4-------|

 |    |    |    |    |    |    |    |
|--------------------------------|2-----------2---------------0---|
|0-----------0-------------------|------------------------2-------|
|--------------------------------|--------------------------------|
|--------------------4---3---2---|--------------------------------|

 |    |    |    |    |    |    |    |
|2-----------2-----------2---2---|--------------------------------|
|--------------------------------|0-----------0-------------------|
|--------------------------------|----------------------------3---|
|--------------------------------|------------------------4-------|

 |    |    |    |    |    |    |    |
|--------------------------------|--------------------------------|
|0-----------0-----------0---3---|2-----------2-----------2-------|
|--------------------------------|--------------------------------|
|--------------------------------|--------------------------------|

 |    |    |    |    |    |    |    |
|0-----------0-----------0-------|--------------------------------|
|--------------------------------|0-----------0-------------------|
|--------------------------------|----------------------------3---|
|--------------------------------|------------------------4-------|

 |    |    |    |    |    |    |    |
|--------------------------------|--------------------------------|
|0-----------0-------------------|2-----------2-----------2-------|
|----------------------------3---|--------------------------------|
|------------------------4-------|--------------------------------|

 |    |    |    |    |    |    |    |
|--------------------------------|--------------------------------|
|---------------------------and so on.....------------------------|
|--------------------------------|--------------------------------|
|--------------------------------|--------------------------------|




_____________________________________________________
ⓘ Bass guitar tab for 'Its All Over Now Baby Blue' by Them, artist. Them was born in 1963.

Almost there ...

Sign in to get your own page with links to favourite songs and more. You are just one click away...

Login with Facebook Login with Google