Log in

One click and you are in

Login with Facebook Login with Google

Why sign up and log in

Guitar Tabs Explorer
Thedooo bass tabs for Ascend

Bass tabs

Tuning: Standard (E A D G)

🎸 Chorus: (Play At A Fairly Quick Tempo)

G|----15---15h17 --------------15h17-----------|
D|----------------17---15h13----------17---17--|
A|---------------------------------------------|
E|---------------------------------------------|
G|--17h19-----------------17h19----------------|
D|----------17----15h13------------15---15-----|
A|---------------------------------------------|
E|---------------------------------------------|

G|--19h20--------------------------------------|
D|---------20----17h15--17--20-----------------|
A|------------------------------17----17-------|
E|---------------------------------------------|

G|---------------------------------------------|
D|----14h15------------------------------------|
A|-----------15---13---13-13-13--15-15-15------|
E|---------------------------------------------|

 (Play FAST!)

G|---------------------------------------------|
D|------------------13-13-13-14-14-14----------|
A|-13-13-13-15-15-15---------------------------|
E|---------------------------------------------|

G|-12-12-12-15-15-15-17-17-17------------------|
D|---------------------------------------------|
A|---------------------------------------------|
E|---------------------------------------------|

***********************************************
key 🏷Legend

| h  hammer-on

***********************************************


[This Is My Attempt Of Putting This Is In Tabs
So Hopefully Its Good! There Wasn’t Any Tabs For
Bass So Thanks To Davie504 I Got It Done
Just Like Davie Would Say, Stay Funky Bros!]

Almost there ...

Sign in to get your own page with links to favourite songs and more. You are just one click away...

Login with Facebook Login with Google