Log in

One click and you are in

Login with Facebook Login with Google

Why sign up and log in

Guitar Tabs Explorer
The The chords for This is the day ukulele

Guitar chords with lyrics

Key: Bb

🎸 Intro:

Bb Gm C Eb x2

A|-5--5-5--5-5-|-5--5-5--5-3-1-|-3----3--3-3-|-3--3-1--1-1-|
E|-6----6--6-6-|-6----6--6-----|-3--3-3--3-3-|-3----3--3-3-| x4
C|-5----5--5-5-|-7----7--7-----|-4----4--4-4-|-3----3--3-3-|
G|-7----7--7-7-|---------------|-5----5--5-5-|-0----0--0-0-|
  Bb      Gm       C       Eb

🎸 Verse 1:
     Bb
Well you didn't wake up this morning
      Gm
'Cause you didn't go to bed
     C
You were watching the whites of
   Eb
Your eyes turn red
Bb       Gm
 The calendar on your wall
  C      Eb
Is ticking the days off
      Bb        Gm
You've been reading some old letters
  C          Eb
You smile and think how much you've changed
Bb       Gm
 All the money in the world
C      Eb
Couldn't buy back those days

🎸 Chorus:

A|-1---------------3---5-----------------------------------|
E|-1---------------3---5-----------------------------------|
C|-2---------------4---6-----------------------------------|
G|-3---------------5---7-----------------------------------|
  Bb       C  D
   You pull back the curtains

A|------1--------------6----3------------------------------|
E|------3--------------6----3------------------------------|
C|------3--------------7----4------------------------------|
G|------0--------------8----5------------------------------|
    Eb       Eb  C
And the sun burns into your eyes

A|-1-----------------3-5-----------------------------------|
E|-1-----------------3-5-----------------------------------|
C|-2-----------------4-6-----------------------------------|
G|-3-----------------5-7-----------------------------------|
  Bb        C D
   You watch a plane flying

A|-1-------------6----3------------------------------------|
E|-3-------------6----3------------------------------------|
C|-3-------------7----4------------------------------------|
G|-0-------------8----5------------------------------------|
  Eb      Eb  C
Across the clear blue sky

A|-1---------3---5-----------------------------------------|
E|-1---------3---5-----------------------------------------|
C|-2---------4---6-----------------------------------------|
G|-3---------5---7-----------------------------------------|
  Bb    C  D
   This is the day

A|---1-------------6--3------------------------------------|
E|---3-------------6--3------------------------------------|
C|---3-------------7--4------------------------------------|
G|---0-------------8--5------------------------------------|
   Eb      Eb C
Your life will surely change

A|-1---------3---5-----------------------------------------|
E|-1---------3---5-----------------------------------------|
C|-2---------4---6-----------------------------------------|
G|-3---------5---7-----------------------------------------|
  Bb    C  D
   This is the day

A|---1-------------6--3------------------------------------|
E|---3-------------6--3------------------------------------|
C|---3-------------7--4------------------------------------|
G|---0-------------8--5------------------------------------|
   Eb      Eb C
When things fall into place


🎸 Instrumental:

A|-5--5-5--5-5-|-5--5-5--5-3-1-|-3----3--3-3-|-3--3-1--1-1-|
E|-6----6--6-6-|-6----6--6-----|-3--3-3--3-3-|-3----3--3-3-| x2
C|-5----5--5-5-|-7----7--7-----|-4----4--4-4-|-3----3--3-3-|
G|-7----7--7-7-|---------------|-5----5--5-5-|-0----0--0-0-|
  Bb      Gm       C       Eb


🎸 Verse 2:

A|-1----5---------------3--1----0--------------------------|
E|-1----6---------------5--3----2--------------------------|
C|-2----5---------------5--2----2--------------------------|
G|-3----7------------------0----2--------------------------|
  Bb  Bb       F Gm  D
   You could've done anything

A|-3-7---------1---6---------------------------------------|
E|-0-8---------3---6---------------------------------------|
C|-0-7---------3---7---------------------------------------|
G|-0-----------0---8---------------------------------------|
  C C     Eb Eb
   If you'd wanted

A|--1--------5-----------3----1--0-------------------------|
E|--1--------6-----------5----3--2-------------------------|
C|--2--------5-----------5----2--2-------------------------|
G|--3--------7----------------0--2-------------------------|
  Bb    Bb     F  Gm D
And all your friends and family

A|-3-----7-----------1---6---------------------------------|
E|-0-----8-----------3---6---------------------------------|
C|-0-----7-----------3---7---------------------------------|
G|-0-----------------0---8---------------------------------|
  C   C      Eb Eb
  Think that you're lucky

A|-1-----5-----------------------3-----1-------------------|
E|-1-----6-----------------------5-----3-------------------|
C|-2-----5-----------------------5-----2-------------------|
G|-3-----7-----------------------------0-------------------|
  Bb  Bb           F   Gm
   But the side of you they'll never see

A|-0---------------3----7--------------1----6--------------|
E|-2---------------0----8--------------3----6--------------|
C|-2---------------0----7--------------3----7--------------|
G|-2---------------0-------------------0----8--------------|
  D        C  C       Eb  Eb
  Is when you're left alone with the memories

A|---1----5----3---1--0------------------------------------|
E|---1----6----5---3--2------------------------------------|
C|---2----5----5---2--2------------------------------------|
G|---3----7--------0--2------------------------------------|
   Bb  Bb  F  Gm D
That hold your life

A|-3-7-------1--6------------------------------------------|
E|-0-8-------3--6------------------------------------------|
C|-0-7-------3--7------------------------------------------|
G|-0---------0--8------------------------------------------|
  C C    Eb Eb  Bb
Together like   glue


🎸 Chorus:

A|-1---------------3---5-----------------------------------|
E|-1---------------3---5-----------------------------------|
C|-2---------------4---6-----------------------------------|
G|-3---------------5---7-----------------------------------|
  Bb       C  D
   You pull back the curtains

A|------1--------------6----3------------------------------|
E|------3--------------6----3------------------------------|
C|------3--------------7----4------------------------------|
G|------0--------------8----5------------------------------|
    Eb       Eb  C
And the sun burns into your eyes

A|-1-----------------3-5-----------------------------------|
E|-1-----------------3-5-----------------------------------|
C|-2-----------------4-6-----------------------------------|
G|-3-----------------5-7-----------------------------------|
  Bb        C D
   You watch a plane flying

A|-1-------------6----3------------------------------------|
E|-3-------------6----3------------------------------------|
C|-3-------------7----4------------------------------------|
G|-0-------------8----5------------------------------------|
  Eb      Eb  C
Across the clear blue sky

A|-1---------3---5-----------------------------------------|
E|-1---------3---5-----------------------------------------|
C|-2---------4---6-----------------------------------------|
G|-3---------5---7-----------------------------------------|
  Bb    C  D
   This is the day

A|---1-------------6--3------------------------------------|
E|---3-------------6--3------------------------------------|
C|---3-------------7--4------------------------------------|
G|---0-------------8--5------------------------------------|
   Eb      Eb C
Your life will surely change

A|-1---------3---5-----------------------------------------|
E|-1---------3---5-----------------------------------------|
C|-2---------4---6-----------------------------------------|
G|-3---------5---7-----------------------------------------|
  Bb    C  D
   This is the day

A|---1-------------6--3------------------------------------|
E|---3-------------6--3------------------------------------|
C|---3-------------7--4------------------------------------|
G|---0-------------8--5------------------------------------|
   Eb      Eb C
When things fall into place


🎸 Outro:

Bb Gm C Eb x2

Almost there ...

Sign in to get your own page with links to favourite songs and more. You are just one click away...

Login with Facebook Login with Google