Log in

One click and you are in

Login with Facebook Login with Google

Why sign up and log in

Guitar Tabs Explorer
Jake Thackray chords for Sister josephine

Guitar chords with lyrics

Title: Sister Josephine
Album: La-Di-Dah
Words: Jake Thackray
Music: Jake Thackray
Transcribed By: Stephen Shodimu

NB: Perhaps it is due to my bad tape, but strings A chord diagramE MajorE
and g are about
    1/4 tone down compared to normal. But it's close
enough for me.

    Due to dumb laws, you'll have to download the rest
of the
    lyrics from the web (or get the full version of
this tab there).

Unusual chords:
---------------

   A chord diagramDdim7Ddim7   A chord diagramCdim7Cdim7
e----4-------2----
b----6-------4----
g----4-------2----
D----6-------4----
A----5-------3----
E----4-------2----


Intro:
------

    A chord diagramA major 6A6                A chord diagramFm7Fm7            A chord diagramBm7Bm7       A chord diagramCm7Cm7
  Amaj7sus2
e------------2-------------3r2h3---------------------------------------
b----------2---------------------2--------3-----4----------------------
g--------2---------------2--------------2-------3------------2--0------
D------2---------------2--------------4---------5--------0h1-----------
A----0---------------4--------------2-----------3------0---------------
E---------------0--2---------------------------------0--------------0--

Verse 1:
--------
   A chord diagramA augmentedA                      A chord diagramC#m7C#m7        A chord diagramC#m7C#m7 A chord diagramCm7Cm7
e--0-----------------------4--4-5-7----4----3---
b--2--2-3-5-3-2---2--------5-----------5----4---
g--2------------4---4-2----4-----------4----3---
D--2-----------------------6-----------6----5---
A--0-----------------------4-----------4----3---
E-----------------------------------------------
   Oh       Sister         Josephine

[A chord diagramBm7Bm7]What do [A chord diagramC#m7C#m7]all these Po[A chord diagramA augmentedA]....
By [A chord diagramF#m7F#m7]coming to the convent in a [A chord diagramBm7Bm7]grim
limou[A chord diagramBm7Bm7]sine[A chord diagramCm7Cm7]
[A chord diagramC#m7C#m7]After Sister Jose[A chord diagramA augmentedA]phine

[A chord diagramE7E7]While [A chord diagramA augmentedA]you Sister [A chord diagramC#m7C#m7]Josephine [A chord diagramC#m7C#m7][A chord diagramCm7Cm7]
You [A chord diagramBm7Bm7]sit with your [A chord diagramC#m7C#m7]boots up on the [A chord diagramA augmentedA]...
screen
You [A chord diagramF#m7F#m7]smoke one last ci[A chord diagramBm7Bm7]gar [A chord diagramBm7Bm7] [A chord diagramCm7Cm7]
[A chord diagramC#m7C#m7]What a funny nun you [A chord diagramA augmentedA]are [A chord diagramE7E7] [A chord diagramA augmentedA]


Chorus 1:
---------
The [A chord diagramDdim7Ddim7]Policemen say ... a [A chord diagramF# minorF#m]burglar ...
[A chord diagramDdim7Ddim7]Big Bad ... the [A chord diagramF# minorF#m]run
The [A chord diagramCdim7Cdim7]sisters ... that [A chord diagramE MajorE]can't ...
Just [A chord diagramCdim7Cdim7]think ...

e----------------------------------6--7------
b----------------------------------------6---
g-------------------------------1------------
D-----------------------------2--------------
A---------------------------2----------------
E---0-----0---0---0---0---0------------------
  towards the younger nuns

** See NB: at the top for the rest of the lyrics

Almost there ...

Sign in to get your own page with links to favourite songs and more. You are just one click away...

Login with Facebook Login with Google