Log in

One click and you are in

Login with Facebook Login with Google

Why sign up and log in

Guitar Tabs Explorer
Texas bass tabs for Put your arms around me

Bass tabs

Tuning: Standard (E A D G)


Verse 1:
  Are you ready maybe...
G|---------------------------------|
D|---------------------------------|
A|---------------------------------|
E|---------------------------------|

Verse 2:
  Are you ready maybe...
G|---------------------------------|
D|---------------------------------|
A|---------------------------------|
E|---------------------------------|


Pre-chorus:
  You tire me out...
G|---------------------------------|
D|---------------------------------|
A|---------------------------------|
E|---------------------------------|


Chorus:
  Hoo hoo so put your arms...
G|---------------------------------|
D|---------------------------------|
A|---------------------------------|
E|---------------------------------|


Verse 3: (at 2:01)
          Maybe, are you...
  1 e & a 2 e & a 3 e & a 4 e & a  1 e & a 2 e & a 3 e & a 4 e & a
G|---------------------------------|---------------------------------|
D|---------------------------------|---------------------------------|
A|-5---5---------5---------5-------|-5---5---------5---------5-------|
E|-----------------5---7-------7---|-----------------5---7-------7---|

...think that I push...
  1 e & a 2 e & a 3 e & a 4 e & a  1 e & a 2 e & a 3 e & a 4 e & a
G|---------------------------------|---------------------------------|
D|-5---5---------5---------5-------|-5---5---------5---------5-------|
A|-----------------5---7-------7---|-----------------5---7-------7---|
E|---------------------------------|---------------------------------|

...open yourself
  1 e & a 2 e & a 3 e & a 4 e & a  1 e & a 2 e & a 3 e & a 4 e & a
G|---------------------------------|---------------------------------|
D|---------------------------------|---------------------------------|
A|-5---5---------5---------5-------|-5---5---------5---------5-------|
E|-----------------5---7-------7---|-----------------5---7-------7---|

    ...not
  1 e & a 2 e & a 3 e & a 4 e & a  1 e & a 2 e & a 3 e & a 4 e & a
G|---------------------------------|---------------------------------|
D|-5---5---------5---------5-------|-5---5---------5---------5-------|
A|-----------------5---7-------7---|-----------------5---7-------5---|
E|---------------------------------|---------------------------------|


pre-chorus:
        You tire me out...
  1 e & a 2 e & a 3 e & a 4 e & a  1 e & a 2 e & a 3 e & a 4 e & a
G|---------------------------------|---------------------------------|
D|---------------------------------|---------------------------------|
A|-7---7---------7-7---7-----------|-3---3---------3-3---3-----------|
E|---------------------------------|---------------------------------|

     A secret screamed...
  1 e & a 2 e & a 3 e & a 4 e & a  1 e & a 2 e & a 3 e & a 4 e & a
G|---------------------------------|---------------------------------|
D|---------------------------------|---------------------------------|
A|-7---7---------7-7---7-----------|-3---3---------3-3---3-----------|
E|---------------------------------|---------------------------------|


  1 e & a 2 e & a 3 e & a 4 e & a
G|---------------------------------|
D|-----------------2-------4-------|
A|---------------------------------|
E|---------------------------------|


  Hoo hoo       so put your arms...
  1 e & a 2 e & a 3 e & a 4 e & a  1 e & a 2 e & a 3 e & a 4 e & a
G|---------------------------------|---------------------------------|
D|-5---5---------5---------5-------|-4---4---------4---------5-------|
A|-----------------5---7-------7---|-----------------5---7-------7---|
E|---------------------------------|---------------------------------|

     You let me believe...
  1 e & a 2 e & a 3 e & a 4 e & a  1 e & a 2 e & a 3 e & a 4 e & a
G|---------------------------------|---------------------------------|
D|---------------------------------|---------------------------------|
A|-3---3---------3---------3-------|-0---0---------0-0---0---2-------|
E|-----------------3---5-------5---|-----------------------------3---|

  Hoo hoo       'cause only time...
  1 e & a 2 e & a 3 e & a 4 e & a  1 e & a 2 e & a 3 e & a 4 e & a
G|---------------------------------|---------------------------------|
D|-5---5---------5---------5-------|-4---4---------4---------5-------|
A|-----------------5---7-------7---|-----------------5---7-------7---|
E|---------------------------------|---------------------------------|

     So let me believe...
  1 e & a 2 e & a 3 e & a 4 e & a  1 e & a 2 e & a 3 e & a 4 e & a
G|---------------------------------|---------------------------------|
D|---------------------------------|---------------------------------|
A|-0---0---------0-0---0-----------|-3---3---------3-3---3---5---7---|
E|---------------------------------|---------------------------------|

...else...                           Yeah let...
  1 e & a 2 e & a 3 e & a 4 e & a  1 e & a 2 e & a 3 e & a 4 e & a
G|---------------------------------|---------------------------------|
D|-5---5---------5---------5-------|-4---4---------4---------5-------|
A|-----------------5---7-------7---|-----------------5---7-------7---|
E|---------------------------------|---------------------------------|

  1 e & a 2 e & a 3 e & a 4 e & a  1 e & a 2 e & a 3 e & a 4 e & a
G|---------------------------------|---------------------------------|
D|---------------------------------|---------------------------------|
A|-3---3---------3---------3-------|-0---0---------0-0---0---0---0---|
E|-----------------3---5-------5---|---------------------------------|


bridge:
  Sha la la la la          Sha la la la la
  1 e & a 2 e & a 3 e & a 4 e & a  1 e & a 2 e & a 3 e & a 4 e & a
G|---------------------------------|---------------------------------|
D|---------------------------------|---------------------------------|
A|---------------------------------|---------------------------------|
E|-6---6---6-----6---6-6---6---6---|-5---5---5-----5---5-5---5---5---|

  Sha la la la la          Sha la la la la
  1 e & a 2 e & a 3 e & a 4 e & a  1 e & a 2 e & a 3 e & a 4 e & a
G|---------------------------------|---------------------------------|
D|---------------------------------|---------------------------------|
A|---------------------------------|---------------------------------|
E|-3---3---3-----3---3-3---3---3---|-3---3---3-----3---3-3---3---3---|

  Sha la la la la          Sha la la la la
  1 e & a 2 e & a 3 e & a 4 e & a  1 e & a 2 e & a 3 e & a 4 e & a
G|---------------------------------|---------------------------------|
D|---------------------------------|---------------------------------|
A|---------------------------------|---------------------------------|
E|-6---6---6-----6---6-6---6---6---|-5---5---5-----5---5-5---5---5---|

  Sha la la la la          Sha la la la la
  1 e & a 2 e & a 3 e & a 4 e & a  1 e & a 2 e & a 3 e & a 4 e & a
G|---------------------------------|---------------------------------|
D|---------------------------------|---------------------------------|
A|---------------------------------|---------------------------------|
E|-3---3---3-----3---3-3---3---3---|-3---3---3-----3---3-3---3---3---|


  Hoo hoo       so put your arms...
  1 e & a 2 e & a 3 e & a 4 e & a  1 e & a 2 e & a 3 e & a 4 e & a
G|---------------------------------|---------------------------------|
D|-5---5---------5---------5-------|-4---4---------4---------5-------|
A|-----------------5---7-------7---|-----------------5---7-------7---|
E|---------------------------------|---------------------------------|


  1 e & a 2 e & a 3 e & a 4 e & a  1 e & a 2 e & a 3 e & a 4 e & a
G|---------------------------------|---------------------------------|
D|---------------------------------|---------------------------------|
A|-3---3---------3---------3-------|-0---0---------0-0---0---2-------|
E|-----------------3---5-------5---|-----------------------------3---|

  Hoo hoo       so put your arms...
  1 e & a 2 e & a 3 e & a 4 e & a  1 e & a 2 e & a 3 e & a 4 e & a
G|---------------------------------|---------------------------------|
D|-5---5---------5---------5-------|-4---4---------4---------5-------|
A|-----------------5---7-------7---|-----------------5---7-------7---|
E|---------------------------------|---------------------------------|

  1 e & a 2 e & a 3 e & a 4 e & a  1 e & a 2 e & a 3 e & a 4 e & a
G|---------------------------------|---------------------------------|
D|---------------------------------|---------------------------------|
A|-0---0---------0-0---0-----------|-3---3---------3---------3-------|
E|---------------------------------|-----------------3---5-------5---|

  Hoo hoo                 and make me believe
  1 e & a 2 e & a 3 e & a 4 e & a  1 e & a 2 e & a 3 e & a 4 e & a
G|---------------------------------|---------------------------------|
D|-5---5---------5---------5-------|-4---4---------4---------5-------|
A|-----------------5---7-------7---|-----------------5---7-------7---|
E|---------------------------------|---------------------------------|

                   Take me...
  1 e & a 2 e & a 3 e & a 4 e & a  1 e & a 2 e & a 3 e & a 4 e & a
G|---------------------------------|---------------------------------|
D|---------------------------------|---------------------------------|
A|-3---3---------3---------3-------|-0---0---------0-0---0---2-------|
E|-----------------3---5-------5---|-----------------------------3---|

  Somewhere...           somewhere...
  1 e & a 2 e & a 3 e & a 4 e & a  1 e & a 2 e & a 3 e & a 4 e & a
G|---------------------------------|---------------------------------|
D|-5---5---------5---------5-------|-4---4---------4---------5-------|
A|-----------------5---7-------7---|-----------------5---7-------7---|
E|---------------------------------|---------------------------------|

     you make me believe
  1 e & a 2 e & a 3 e & a 4 e & a  1 e & a 2 e & a 3 e & a 4 e & a
G|---------------------------------|---------------------------------|
D|---------------------------------|---------------------------------|
A|-0---0---------0-0---0-----------|-3---3---------3---------3-------|
E|---------------------------------|-----------------3---5-------5---|

            cause only  time...
  1 e & a 2 e & a 3 e & a 4 e & a  1 e & a 2 e & a 3 e & a 4 e & a
G|---------------------------------|---------------------------------|
D|-5---5---------5---------5-------|-4---4---------4---------5-------|
A|-----------------5---7-------7---|-----------------5---7-------7---|
E|---------------------------------|---------------------------------|

                 so stop!
  1 e & a 2 e & a 3 e & a 4 e & a  1 e & a 2 e & a 3 e & a 4 e & a
G|---------------------------------|---------------------------------|
D|---------------------------------|---------------------------------|
A|-3---3---------3---------3-------|---------------------------------|
E|-----------------3---5-------5---|---------------------------------|

Almost there ...

Sign in to get your own page with links to favourite songs and more. You are just one click away...

Login with Facebook Login with Google