Return To Serenity by Testament

Return To Serenity tab by Testament

Guitar tabs

[electic and acoustic versions]

Return to Serenity By: Testament
>From the album The Ritual
Transcribed by: Edwardo          tune down 1/2 step

 guitar 1   guitar 2 (play over what guitar 1 is playing)
e|------------|----8---7---5---------12---10--8--------17-----15--12-|
B|------------|------------------------------------------------------|
G|------------|--9---7-----5------12---10-----9-----17-----16-----14-|
D|------2---3-|------------------------------------------------------|
A|--0---------|------------------------------------------------------|
E|------------|------------------------------------------------------|

 guitar 1
e|---------------------------------------|--------------------------|
B|---------------------------------------|--------0-----------------|
G|------------------------h-p------------|------0---0-------0-------|
D|----2--3-3~5--3-2-3-3--2>3

Find guitar tabs and chords

A B C D E F G H I J K L M N O P Q R S T U V W X Y Z #