Log in

One click and you are in

Login with Facebook Login with Google

Why sign up and log in

Guitar Tabs Explorer
Testament bass tabs for Alone in the dark

Bass tabs

Album: The legacy


   Intro
G:-------------------------------------------------------------
D:------------------------------------------5h7-5--------------
A:-------------------------------------------------7--6-5------
E:-5--------1--------5--------1--------5---------------------5-

  
G:---------------------------2-2-0-----------------------------
D:---7---------------3-3-2-0-------3-3-3-2-0---------------5h7-
A:-7---------3-3-2-0-------------------------------------------
E:------1------------------------------------3-3-3-1-0--5------

  
G:-------------------------------------------------------------
D:7-7-7-7-7-7-7-7-7-7-7-7-7-7-7-5---5--------------------------
A:--------------------------------7---7-5-8--------5-7-8-------
E:-------------------------------------------------------------


   "Kick-In" 
G:-------------------------------------------------------------
D:-------------------------------------------------------------
A:----3-0--------0--------0--------12-----3--------------------
E:-1-----------------------------------1-----------------------


   Verse/Chorus
G:-------------------------------------------------------------
D:-------------1-----------------------------1-----------------
A:-0-0-0-0-0-0----0-0-0-0-0-0-1--0-0-0-0-0-0----0-0-0-------3--
E:-------------------------------------------------------1-----


   "Breaked Verse"
G:-------------------------------------------------------------
D:-------------1-----------------------------1-----------------
A:-0-0-0-0-0-0----0-0-0-0-0-0-1--0-0-0-0-0-0----0-----------3--
E:-------------------------------------------------------1----- 



   "Chorus-flow-to-Breakdown"
G:-------------------------------------------------------------
D:-------------1-----------------------------1-----------------
A:-0-0-0-0-0-0----0-0-0-0-0-0-1--0-0-0-0-0-0----0-0-0----1--3--
E:-------------------------------------------------------------

  
G:-------------------------------------------------------------
D:---------3---------------------------------------------------
A:5-------------3----------------------------------------------
E:-------------------------------------------------------------


   Breakdown
G:-------------------------------------------------------------
D:------------------------------------------------------1-4-0-4
A:-------------------------2-0-3--------------------0-3--------
E:-2-2-2-2-3\2-2-2-2-2-2-2--------2-2-2-2-3\2-2-2-2------------  


G:-------------------------------------------------------------
D:-------------------------------------------------------------
A:-------------------------2-0-3-------------------------------
E:-2-2-2-2-3\2-2-2-2-2-2-2--------2-2-2-2-3\2-2-2-2------------  


   Interlude
G:-------------------------------------------------------------
D:------7p5---7--5---7--5-----------------------------7p5---7--
A:----------7------7------5-7-8--8-7-5-7--5-5-7-----------7----
E:-5---------------------------------------------5-------------  


G:-------------------------------------------------------------
D:5---7--5-----------------------------------------------------
A:--7------5-7-8--8-7-5-7--5-5-7--0-0-0-0-0-0-0-0-0-0-0-0-0-0-7
E:-------------------------------------------------------------  


G:-------------------------------------------------------------
D:-------------------------------------------------------------
A:------------------------------3--0-0-0-0-0-0-0-0-0-0-0-0-0-0-
E:--1-1-1-1-1-1-1-1-1-1-1-1-1-1--------------------------------  


G:-------------------------------------------------------------
D:-------------------------------------------------------------
A:-7--8-8-8-8-8-8-8-8-8-8-8-8-8-8-8-8--------------------------
E:-------------------------------------------------------------  


   Guitar-Solo
G:-------------------------------------------------------------
D:-------------------------------------------------------------
A:0-0-0-0-0-0-0-0-8-8-8-8-8-8-8-8-5-5-5-5-5-5-5-5-0-0-0--------
E:---------------------------------------------------------1--0  


   "Guitar-Solo-Die-Away"
G:-------------------------------------------------------------
D:-------------------------------------------------------------
A:-------------------------------------------------------------
E:-1--3--5-5-----1--3--5-5----1--3--5-5----1--3--0-0-----------  


   Outro
G:-------------------------------------------------------------
D:-------------1-----------------------------1-----------------
A:-0-0-0-0-0-0----0-0-0-0-0-0-1--0-0-0-0-0-0---0---------------
E:-------------------------------------------------------------  


How to play it:


Intro  X 1

"Kick-in"  X 1


Verse/Chorus-Part  X 3
"Breaked Verse"  X 1


Verse/Chorus-Part  X 3
"Chorus-Flow-to-Breakdown"  X 1

Breakdown  X 1


Verse/Chorus-Part  X 5
"Chorus-flow-to-Breakdown"  X 1

Breakdown  X 1


Verse/Chorus-Part  X 1
"Breaked Verse"  X 1

Interlude  X 1

Guitar-Solo-Part  X 4
"Guitar-Solo-Die-Away"  X 1

"Kick-in"  X 1


Verse/Chorus-Part  X 3
"Chorus-Flow-to-Breakdown"  X 1

Breakdown  X 1


Outro  X 1


Check this one out! It really kicks ass!

Transcribed by "Funky-Stone" Marco Scheidweiler
Comments or suggestions, please email me at MrcSchdwlr@aol.com

Almost there ...

Sign in to get your own page with links to favourite songs and more. You are just one click away...

Login with Facebook Login with Google