Log in

One click and you are in

Login with Facebook Login with Google

Why sign up and log in

Guitar Tabs Explorer
Tennessee Ernie Ford bass tabs for Sixteen tons

Sixteen Tons bass tab by Tennessee Ernie Ford

Tennessee Ernie Ford bass tabs for Sixteen tons

Bass tabs

Tuning: Standard (E A D G)

Key: Am

Difficulty: Novice
Verse:

G|------------------2--4---2---0------2--4---2---0---------------------------|
D|-----------------4---------------4-4---------------4-0---------------------|
A|------------------------------------------------------2--------------------|
E|--------------------------------------------------------2------------------|


Chorus:

G|2--4---2---0------2--4---2---0------2--4---2---0---------------------------|
D|---------------4-4---------------4-4---------------4-0---------------------|
A|------------------------------------------------------2--------------------|
E|--------------------------------------------------------2------------------|


Verse:

G|------------------2--4---2---0------2--4---2---0---------------------------|
D|-----------------4---------------4-4---------------4-0---------------------|
A|------------------------------------------------------2--------------------|
E|--------------------------------------------------------2------------------|


Chorus:

G|2--4---2---0------2--4---2---0------2--4---2---0---------------------------|
D|---------------4-4---------------4-4---------------4-0---------------------|
A|------------------------------------------------------2--------------------|
E|--------------------------------------------------------2------------------|

Verse:

G|------------------2--4---2---0------2--4---2---0---------------------------|
D|-----------------4---------------4-4---------------4-0---------------------|
A|------------------------------------------------------2--------------------|
E|--------------------------------------------------------2------------------|


Chorus:

G|2--4---2---0------2--4---2---0------2--4---2---0---------------------------|
D|---------------4-4---------------4-4---------------4-0---------------------|
A|------------------------------------------------------2--------------------|
E|--------------------------------------------------------2------------------|


Verse:

G|------------------2--4---2---0------2--4---2---0---------------------------|
D|-----------------4---------------4-4---------------4-0---------------------|
A|------------------------------------------------------2--------------------|
E|--------------------------------------------------------2------------------|


Chorus:

G|2--4---2---0------2--4---2---0------2--4---2---0---------------------------|
D|---------------4-4---------------4-4---------------4-0---------------------|
A|------------------------------------------------------2--------------------|
E|--------------------------------------------------------2------------------|


Just repeat this through the song, it doesn't change. The song goes Verse, Chorus, Verse, Chorus, Verse,

Chorus, Verse, Chorus.

Almost there ...

Sign in to get your own page with links to favourite songs and more. You are just one click away...

Login with Facebook Login with Google