Log in

One click and you are in

Login with Facebook Login with Google

Why sign up and log in

Guitar Tabs Explorer
Tenacious D chords for Tribute

Guitar chords

Artist - Tenacious A chord diagramD MajorD
Song - Tribute


Intro & Verse
E-------------------------------------------|
B-------------1-111-11-1h3-0h1-----1-111-11-|
G-----0h2-----2-222-22-2---2-------2-222-22-|
D-0h2-------2--------------------2----------|
A---------0--------------------0------------|
E-------------------------------------------|

And He Said...
E-------------------|
B-------------------|
G-2-2-2-2-2-2-2-2-2-|
D-2-2-2-2-2-2-2-2-2-|
A-0-0-0-0-0-0-0-0-0-|
E-------------------|
<-----Palm Mute----->


VERSE


Pre-Chorus
And we played the first thing...
A chord diagramA minorAm   A chord diagramG+G   A chord diagramFF   A chord diagramFF               x2


Chorus
Look into my eyes....
A chord diagramD MajorD    A chord diagramFF   A chord diagramC majorC   A chord diagramG+G   A chord diagramFF A chord diagramFF A chord diagramFF       x2


VERSE

Interlude
Aahhhhhhahhhhhahhhh
A chord diagramD MajorD    A chord diagramFF   A chord diagramC majorC   A chord diagramG+G   A chord diagramFF A chord diagramFF A chord diagramFF

Look into my eyes and its easy to see....
A chord diagramA minorAm   A chord diagramA minorAm    A chord diagramG+G   A chord diagramA minorAm

To the greatest song in the world
A chord diagramA minorAm   A chord diagramG+G   G/F#   A chord diagramFF
(Carry on these chords till end line "Rich motherfucker" or something like
that)

A chord diagramE minorEm   A chord diagramFF

then plays A chord diagramFF for ages really fast.

<> = Harmonic
E-----------0------|
B---------0--------|
G-------5----------|
D-----7------------|
A---7----------<5>-|
E-5----------------|

Other versions of Tribute

TributeTabs
Tribute To The Best Song in The WorldTabs

Almost there ...

Sign in to get your own page with links to favourite songs and more. You are just one click away...

Login with Facebook Login with Google