Search tabs and chords

Search for song, artist or band

Log in

One click and you are in

Login with Facebook Login with Google

Why sign up and log in

Guitar Tabs Explorer
Ten Tonnes guitar tabs for Subtle changes acoustic

Guitar tabs with lyrics

Tuning: Standard (E chord diagramEE A chord diagramAA D chord diagramDD G chord diagramGG B chord diagramBB E chord diagramEE)

Key: Ab chord diagramAbAb

Difficulty: Novice

Ten Tonnes - Acoustic

Intro:

  Ab chord diagramAbAb               Ebadd9           Db chord diagramDbDb                            Ebadd9
e|----------------|----------------|----------------|----------------|
B|-------4--------|-------6--------|----------------|----------------|
G|---5-------5---5|----------------|-------6--------|-------6--------|
D|-6---6---6---6--|---5-------5---5|---6-------6---6|---6-------6---5|
A|----------------|-6---6---6---6--|-4---4---4---4--|-4---4---4---6--|
E|----------------|----------------|----------------|----------------|

  Ab chord diagramAbAb               Ebadd9           Db chord diagramDbDb                            Ebadd9
e|----------------|----------------|----------------|----------------|
B|-------4--------|-------6--------|----------------|----------------|
G|---5-------5---5|----------------|-------6--------|-------6--------|
D|-6---6---6---6--|---5-------5---5|---6-------6---6|---6-------6---5|
A|----------------|-6---6---6---6--|-4---4---4---4--|-4---4---4---6--|
E|----------------|----------------|----------------|----------------|

Verse 1:

 Ab chord diagramAbAb               Ebadd9           Db chord diagramDbDb                             Ebadd9
e|----------------|----------------|----------------|----------------|
B|-------4--------|-------6--------|----------------|----------------|
G|---5-------5---5|----------------|-------6--------|-------6--------|
D|-6---6---6---6--|---5-------5---5|---6-------6---6|---6-------6---5|
A|----------------|-6---6---6---6--|-4---4---4---4--|-4---4---4---6--|
E|----------------|----------------|----------------|----------------|
     I waited          for you                      I thought I should

 Ab chord diagramAbAb               Ebadd9           Db chord diagramDbDb                             Ebadd9
e|----------------|----------------|----------------|----------------|
B|-------4--------|-------6--------|----------------|----------------|
G|---5-------5---5|----------------|-------6--------|-------6--------|
D|-6---6---6---6--|---5-------5---5|---6-------6---6|---6-------6---5|
A|----------------|-6---6---6---6--|-4---4---4---4--|-4---4---4---6--|
E|----------------|----------------|----------------|----------------|
     Something told me not to go

 Ab chord diagramAbAb               Ebadd9           Db chord diagramDbDb                             Ebadd9
e|----------------|----------------|----------------|----------------|
B|-------4--------|-------6--------|----------------|----------------|
G|---5-------5---5|----------------|-------6--------|-------6--------|
D|-6---6---6---6--|---5-------5---5|---6-------6---6|---6-------6---5|
A|----------------|-6---6---6---6--|-4---4---4---4--|-4---4---4---6--|
E|----------------|----------------|----------------|----------------|
    A chord diagramAA cold hand       reached out

 Ab chord diagramAbAb               Ebadd9           Db chord diagramDbDb                             Ebadd9
e|----------------|----------------|----------------|----------------|
B|-------4--------|-------6--------|----------------|----------------|
G|---5-------5---5|----------------|-------6--------|-------6--------|
D|-6---6---6---6--|---5-------5---5|---6-------6---6|---6-------6---5|
A|----------------|-6---6---6---6--|-4---4---4---4--|-4---4---4---6--|
E|----------------|----------------|----------------|----------------|
  I let the noise      drown it out

Chorus:
  Ab chord diagramAbAb               Ebadd9           Db chord diagramDbDb                        Ebadd9
e|----------------|----------------|----------------|----------------|
B|----------------|----------------|----------------|----------------|
G|---5---5---5---5|----------------|----------------|----------------|
D|-6---6---6---6--|---5---5---5---5|---6---6---6---6|---6---6---5---5|
A|----------------|-6---6---6---6--|-4---4---4---4--|-4---4---6---6--|
E|----------------|----------------|----------------|----------------|
           Subtle changes                                     Happen

  Ab chord diagramAbAb               Ebadd9           Db chord diagramDbDb                        Ebadd9
e|----------------|----------------|----------------|----------------|
B|----------------|----------------|----------------|----------------|
G|---5---5---5---5|----------------|----------------|----------------|
D|-6---6---6---6--|---5---5---5---5|---6---6---6---6|---6---6---5---5|
A|----------------|-6---6---6---6--|-4---4---4---4--|-4---4---6---6--|
E|----------------|----------------|----------------|----------------|
   slowly       I'll be silent                          I always have

  Ab chord diagramAbAb               Ebadd9           Db chord diagramDbDb                        Ebadd9
e|----------------|----------------|----------------|----------------|
B|----------------|----------------|----------------|----------------|
G|---5---5---5---5|----------------|----------------|----------------|
D|-6---6---6---6--|---5---5---5---5|---6---6---6---6|---6---6---5---5|
A|----------------|-6---6---6---6--|-4---4---4---4--|-4---4---6---6--|
E|----------------|----------------|----------------|----------------|
   been        Darkness floods your eyes             When you need to see

 Ab chord diagramAbAb               Ebadd9           Db chord diagramDbDb
e|----------------|----------------|----------------|----------------|
B|----------------|----------------|----------------|----------------|
G|-5--------------|----------------|----------------|----------------|
D|(6)-------------|-5--------------|-6--------------|----------------|
A|----------------|-6--------------|-4--------------|----------------|
E|----------------|----------------|----------------|----------------|
   Don't waste your time          on me

Verse 2:

 Ab chord diagramAbAb               Ebadd9           Db chord diagramDbDb                             Ebadd9
e|----------------|----------------|----------------|----------------|
B|-------4--------|-------6--------|----------------|----------------|
G|---5-------5---5|----------------|-------6--------|-------6--------|
D|-6---6---6---6--|---5-------5---5|---6-------6---6|---6-------6---5|
A|----------------|-6---6---6---6--|-4---4---4---4--|-4---4---4---6--|
E|----------------|----------------|----------------|----------------|
     I hear             crying       from behind

 Ab chord diagramAbAb               Ebadd9           Db chord diagramDbDb                             Ebadd9
e|----------------|----------------|----------------|----------------|
B|-------4--------|-------6--------|----------------|----------------|
G|---5-------5---5|----------------|-------6--------|-------6--------|
D|-6---6---6---6--|---5-------5---5|---6-------6---6|---6-------6---5|
A|----------------|-6---6---6---6--|-4---4---4---4--|-4---4---4---6--|
E|----------------|----------------|----------------|----------------|
        The way I             never did

 Ab chord diagramAbAb               Ebadd9           Db chord diagramDbDb                             Ebadd9
e|----------------|----------------|----------------|----------------|
B|-------4--------|-------6--------|----------------|----------------|
G|---5-------5---5|----------------|-------6--------|-------6--------|
D|-6---6---6---6--|---5-------5---5|---6-------6---6|---6-------6---5|
A|----------------|-6---6---6---6--|-4---4---4---4--|-4---4---4---6--|
E|----------------|----------------|----------------|----------------|
  I used to listen out to hear you calling

 Ab chord diagramAbAb               Ebadd9           Db chord diagramDbDb                             Ebadd9
e|----------------|----------------|----------------|----------------|
B|-------4--------|-------6--------|----------------|----------------|
G|---5-------5---5|----------------|-------6--------|-------6--------|
D|-6---6---6---6--|---5-------5---5|---6-------6---6|---6-------6---5|
A|----------------|-6---6---6---6--|-4---4---4---4--|-4---4---4---6--|
E|----------------|----------------|----------------|----------------|
  I still listen out but I hear nothing at all

Chorus:

  Ab chord diagramAbAb               Ebadd9           Db chord diagramDbDb                        Ebadd9
e|----------------|----------------|----------------|----------------|
B|----------------|----------------|----------------|----------------|
G|---5---5---5---5|----------------|----------------|----------------|
D|-6---6---6---6--|---5---5---5---5|---6---6---6---6|---6---6---5---5|
A|----------------|-6---6---6---6--|-4---4---4---4--|-4---4---6---6--|
E|----------------|----------------|----------------|----------------|
           Subtle changes                                     Happen

  Ab chord diagramAbAb               Ebadd9           Db chord diagramDbDb                        Ebadd9
e|----------------|----------------|----------------|----------------|
B|----------------|----------------|----------------|----------------|
G|---5---5---5---5|----------------|----------------|----------------|
D|-6---6---6---6--|---5---5---5---5|---6---6---6---6|---6---6---5---5|
A|----------------|-6---6---6---6--|-4---4---4---4--|-4---4---6---6--|
E|----------------|----------------|----------------|----------------|
   slowly       I'll be silent                          I always have

  Ab chord diagramAbAb               Ebadd9           Db chord diagramDbDb                        Ebadd9
e|----------------|----------------|----------------|----------------|
B|----------------|----------------|----------------|----------------|
G|---5---5---5---5|----------------|----------------|----------------|
D|-6---6---6---6--|---5---5---5---5|---6---6---6---6|---6---6---5---5|
A|----------------|-6---6---6---6--|-4---4---4---4--|-4---4---6---6--|
E|----------------|----------------|----------------|----------------|
   been        Darkness floods your eyes             When you need to see

  Ab chord diagramAbAb               Ebadd9           Db chord diagramDbDb                        Ebadd9
e|----------------|----------------|----------------|----------------|
B|----------------|----------------|----------------|----------------|
G|---5---5---5---5|----------------|----------------|----------------|
D|-6---6---6---6--|---5---5---5---5|---6---6---6---6|---6---6---6---4|
A|----------------|-6---6---6---6--|-4---4---4---4--|-4---4---4---4--|
E|----------------|----------------|----------------|----------------|
   Don't waste your time         on                  Are you feeling

Bridge:

  Ab chord diagramAbAb               Ebadd9           Db chord diagramDbDb
e|----------------|----------------|----------------|----------------|
B|----------------|----------------|----------------|----------------|
G|---5---5---5---5|----------------|----------------|----------------|
D|-6---6---6---6--|---5---5---5---5|---6---6---6---6|---6---6---6---6|
A|----------------|-6---6---6---6--|-4---4---4---4--|-4---4---4---4--|
E|----------------|----------------|----------------|----------------|
   better now?           I hope so                  I've been here be-

  Ab chord diagramAbAb               Ebadd9           Db chord diagramDbDb
e|----------------|----------------|----------------|----------------|
B|----------------|----------------|----------------|----------------|
G|---5---5---5---5|----------------|----------------|----------------|
D|-6---6---6---6--|---5---5---5---5|---6---6---6---6|---6---6---6---6|
A|----------------|-6---6---6---6--|-4---4---4---4--|-4---4---4---4--|
E|----------------|----------------|----------------|----------------|
  fore Once before, maybe twice                      And I wish that I

  Ab chord diagramAbAb               Ebadd9           Db chord diagramDbDb
e|----------------|----------------|----------------|----------------|
B|----------------|----------------|----------------|----------------|
G|---5---5---5---5|----------------|----------------|----------------|
D|-6---6---6---6--|---5---5---5---5|---6---6---6---6|---6---6---6---6|
A|----------------|-6---6---6---6--|-4---4---4---4--|-4---4---4---4--|
E|----------------|----------------|----------------|----------------|
  could stay and    help you         more    But I just don't have the

  Ab chord diagramAbAb
e|----------------|----------------|----------------|----------------|
B|----------------|-----------4---4|----------------|----------------|
G|---5---5---5---5|---5---5--------|----------------|----------------|
D|-6---6---6---6--|----------------|----------------|----------------|
A|----------------|-6---6---6---6--|----------------|----------------|
E|----------------|----------------|----------------|----------------|
  time

Chorus:
  Ab chord diagramAbAb               Ebadd9           Db chord diagramDbDb
e|----------------|----------------|----------------|----------------|
B|----------------|----------------|----------------|----------------|
G|---5---5---5---5|----------------|----------------|----------------|
D|-6---6---6---6--|---5---5---5---5|---6---6---6---6|---6---6---6---6|
A|----------------|-6---6---6---6--|-4---4---4---4--|-4---4---4---4--|
E|----------------|----------------|----------------|----------------|
           Subtle changes                                     Happen

  Ab chord diagramAbAb               Ebadd9           Db chord diagramDbDb
e|----------------|----------------|----------------|----------------|
B|----------------|----------------|----------------|----------------|
G|---5---5---5---5|----------------|----------------|----------------|
D|-6---6---6---6--|---5---5---5---5|---6---6---6---6|---6---6---6---6|
A|----------------|-6---6---6---6--|-4---4---4---4--|-4---4---4---4--|
E|----------------|----------------|----------------|----------------|
   slowly       I'll be silent                          I always have

  Ab chord diagramAbAb               Ebadd9           Db chord diagramDbDb
e|----------------|----------------|----------------|----------------|
B|----------------|----------------|----------------|----------------|
G|---5---5---5---5|----------------|----------------|----------------|
D|-6---6---6---6--|---5---5---5---5|---6---6---6---6|---6---6---6---6|
A|----------------|-6---6---6---6--|-4---4---4---4--|-4---4---4---4--|
E|----------------|----------------|----------------|----------------|
   been        Darkness floods your eyes             When you need to see

 Ab chord diagramAbAb               Ebadd9           Db chord diagramDbDb
e|----------------|----------------|----------------|----------------|
B|----------------|----------------|----------------|----------------|
G|---5---5---5---5|----------------|----------------|----------------|
D|-6---6---6---6--|---5---5---5---5|---6---6---6---6|---6---6---6---6|
A|----------------|-6---6---6---6--|-4---4---4---4--|-4---4---4---4--|
E|----------------|----------------|----------------|----------------|
   Don't waste your time          on me

 Ab chord diagramAbAb               Ebadd9           Db chord diagramDbDb
e|----------------|----------------|----------------|----------------|
B|----------------|----------------|----------------|----------------|
G|-5--------------|----------------|----------------|----------------|
D|-6--------------|-5--------------|-6--------------|----------------|
A|----------------|-6--------------|-4--------------|----------------|
E|----------------|----------------|----------------|----------------|
   Don't waste your time          on me



************************************

| x   Dead note
| g   Grace note
| (n) Ghost note
| h   Hammer-on
| p   Pull-off
| r   Release
| >   Accented note
| t   Tapping
| b   Bend
| br  Bend release
| pb  Pre-bend
| pbr Pre-bend release
| /   Slide up
| \   Slide down
| ~   Vibrato
| s   Slap
| P   Pop
| PM  Palm mute
| TR  Trill
| N   Tremolo

************************************

Almost there ...

Sign in to get your own page with links to favourite songs and more. You are just one click away...

Login with Facebook Login with Google