Log in

One click and you are in

Login with Facebook Login with Google

Why sign up and log in

Guitar Tabs Explorer
Ten Tonnes bass tabs for Better than me

Bass tabs

Tuning: Standard (E A D G)


Intro:

G|-------------------------------------------|
D|-------------------------------------------|
A|-9----9---9----9----7----7---7-----7-------|
E|----7---7----7---7-----7---7----7----7-----|
Verse 1:

G|-------------------------------------------|
D|-------------------------------------------|
A|-9----9---9----9----7----7---7-----7-------|
E|----7---7----7---7-----7---7----7----7-----|

G|-------------------------------------------|
D|-------------------------------------------|
A|-9----9---9----9----7----7---7-----7-------|
E|----7---7----7---7-----7---7----7----7-----|

G|-------------------------------------------|
D|-------------------------------------------|
A|-9----9---9----9----7----7---7-----7-------|
E|----7---7----7---7-----7---7----7----7-----|

G|-------------------------------------------|
D|-------------------------------------------|
A|-9----9---9----9----7----7---7-----7-------|
E|----7---7----7---7-----7---7----7----7\----|


Chorus:

G|---------------------------------------------------------------------------|
D|-----------------------4-6-6-4-4--2-2-2-2-2-2-2-2--------------------------|
A|-----------------2-2-2----------------------------4-4-4-4-4-4-4-4----------|
E|-2-2-2-2-2-2-2-4-----------------------------------------------------------|

G|---------------------------------------------------------------------------|
D|-----------------------4-6-6-4-4--2-2-2-2-2-2-2-2--------------------------|
A|-----------------2-2-2----------------------------4-4-4-4-4-4-4-4----------|
E|-2-2-2-2-2-2-2-4-----------------------------------------------------------|

G|---------------------------------------------------------------------------|
D|-----------------------4-6-6-4-4--2-2-2-2-2-2-2-2--------------------------|
A|-----------------2-2-2----------------------------4-4-4-4-4-4-4-4----------|
E|-2-2-2-2-2-2-2-4-----------------------------------------------------------|

G|---------------------------------------------------------------------------|
D|-----------------------4-6-6-4-4--2-2-2-2-2-2-2-2--------------------------|
A|-----------------2-2-2----------------------------4~--------\--------------|
E|-2-2-2-2-2-2-2-4-----------------------------------------------------------|


Verse 2:

G|-------------------------------------------|
D|-------------------------------------------|
A|-9----9---9----9----7----7---7-----7-------|
E|----7---7----7---7-----7---7----7----7-----|

G|-------------------------------------------|
D|-------------------------------------------|
A|-9----9---9----9----7----7---7-----7-------|
E|----7---7----7---7-----7---7----7----7-----|

G|-------------------------------------------|
D|-------------------------------------------|
A|-9----9---9----9----7----7---7-----7-------|
E|----7---7----7---7-----7---7----7----7-----|

G|-------------------------------------------|
D|-------------------------------------------|
A|-9----9---9----9----7----7---7-----7-------|
E|----7---7----7---7-----7---7----7----7-----|

G|-------------------------------------------|
D|-------------------------------------------|
A|-9----9---9----9----7----7---7-----7-------|
E|----7---7----7---7-----7---7----7----7\----|


Chorus:

G|---------------------------------------------------------------------------|
D|-----------------------4-6-6-4-4--2-2-2-2-2-2-2-2--------------------------|
A|-----------------2-2-2----------------------------4-4-4-4-4-4-4-4----------|
E|-2-2-2-2-2-2-2-4-----------------------------------------------------------|

G|---------------------------------------------------------------------------|
D|-----------------------4-6-6-4-4--2-2-2-2-2-2-2-2--------------------------|
A|-----------------2-2-2----------------------------4-4-4-4-4-4-4-4----------|
E|-2-2-2-2-2-2-2-4-----------------------------------------------------------|

G|---------------------------------------------------------------------------|
D|-----------------------4-6-6-4-4--2-2-2-2-2-2-2-2--------------------------|
A|-----------------2-2-2----------------------------4-4-4-4-4-4-4-4----------|
E|-2-2-2-2-2-2-2-4-----------------------------------------------------------|

G|---------------------------------------------------------------------------|
D|-----------------------4-6-6-4-4--2-2-2-2-2-2-2-2--------------------------|
A|-----------------2-2-2----------------------------4-4-4-4-4-4-4-4----------|
E|-2-2-2-2-2-2-2-4-----------------------------------------------------------|

G|---------------------------------------------------------------------------|
D|-----------------------4-6-6-4-4--2-2-2-2-2-2-2-2--------------------------|
A|-----------------2-2-2----------------------------4~--------\--------------|
E|-2-2-2-2-2-2-2-4-----------------------------------------------------------|


Bridge:

G|------------------------------------------------------------------------------------|
D|------------------------------------------------------------------------------------|
A|-0--0-0-0--0--0-0-0--2--2-2-2--2--2-2-2----4----2---0-0--0----------------2-2--2-2~-|
E|-----------------------------------------------------------4-4--4--4-4--4-----------|


Chorus:

G|---------------------------------------------------------------------------|
D|-----------------------4-6-6-4-4--2-2-2-2-2-2-2-2--------------------------|
A|-----------------2-2-2----------------------------4-4-4-4-4-4-4-4----------|
E|-2-2-2-2-2-2-2-4-----------------------------------------------------------|

G|---------------------------------------------------------------------------|
D|-----------------------4-6-6-4-4--2-2-2-2-2-2-2-2--------------------------|
A|-----------------2-2-2----------------------------4-4-4-4-4-4-4-4----------|
E|-2-2-2-2-2-2-2-4-----------------------------------------------------------|


Outro:

G|---------------------------------------------------------------------------|
D|-----------------------4-6-6-4-4--2-2-2-2-2-2-2-2--------------------------|
A|-----------------2-2-2----------------------------4-4-4-4-4-4-4-4----------|
E|-2-2-2-2-2-2-2-4-----------------------------------------------------------|

G|---------------------------------------------------------------------------|
D|-----------------------4-6-6-4-4--2-2-2-2-2-2-2-2--------------------------|
A|-----------------2-2-2----------------------------4~--------\--------------|
E|-2-2-2-2-2-2-2-4-----------------------------------------------------------|


************************************

| \  Slide down
| ~  Vibrato

************************************

Almost there ...

Sign in to get your own page with links to favourite songs and more. You are just one click away...

Login with Facebook Login with Google