Guitar Tabs Explorer
Temple Of The Dog guitar tabs for Angel of fire

Angel Of Fire tab


5 / 5 [1 vote]


Apollonia93Author: Apollonia93

Angel Of Fire tab by Temple Of The Dog

A demo recording. Rhythm and lead parts in standard tuning.

Guitar tabs with lyrics

Print
  • Tuning: Standard tuning

This is a demo that was officially released on Temple Of The Dog`s 25th anniversary edition album:
https://www.youtube.com/watch?v=cTgSUE-LzRk

0:01 VERSE

   G chord diagramGG        C chord diagramCC        G chord diagramGG        D chord diagramDD       C chord diagramCC        G chord diagramGG        D chord diagramDD                          D chord diagramDD
e|-3-3------0-0------3-3-3-0--2--3p2--0-0---------------2-2-----|---0--------------2-2-----|
B|-3---3----1---1----3--------3--3----1---1-------------3---3---|-----3------3--3--3---3---|
G|-0-----0--0-----0--0--------2--2----0-----0--0--0--0--2-----2-|-------2----2--3--2-----0-|
D|-0--------2--------0--------0--0----2--------0--0--0--0-------|---------3--------0-------|
A|-2--------3--------2----------------3--------2--2--2----------|-3------------------------|
E|-3-----------------3-------------------------3--3--3----------|--------------------------|

  C chord diagramCC         G chord diagramGG        C chord diagramCC        G chord diagramGG      D chord diagramDD         C chord diagramCC        G chord diagramGG        D chord diagramDD                                D chord diagramDD   D chord diagramDD  D chord diagramDD
e|----------3-3------0-0------3-3----2--3p2-0--0-0---------------2-2-----|-------0-----|-----0----2---2--2-|
B|-1--1--1--3---3----1---1----3---3--3---------1---1-------------3---3---|---------3---|-------3--3---3--3-|
G|-0--0--0--0-----0--0-----0--0------2---------0-----0--0--0--0--2-----2-|-----2-----2-|---2------2---2--2-|
D|-2--2--2--0--------2--------0------0---------2--------0--0--0--0-------|---0---------|-3--------0--------|
A|-3--3--3--2--------3--------2----------------3--------2--2--2----------|-3-----------|-------------------|
E|----------3-----------------3-------------------------3--3--3----------|-------------|-------------------|

   C chord diagramCC        G chord diagramGG     C chord diagramCC        G chord diagramGG        D chord diagramDD                                D5 chord diagramD5D5 D chord diagramDD
e|-0--0--0--3--|--0--0--0--3--3--3--2-2-----|-------0-----|-----0-------2--0---0-|
B|-1--1--1--3--|--1--1--1--3--3--3--3---3---|---------3---|---3---3--3--3----3---|
G|-0--0--0--0--|--0--0--0--0--0--0--2-----2-|-----2-----2-|----------2--2--------|
D|-2--2--2--0--|--2--2--2--0--0--0--0-------|---0---------|-3-----------0--------|
A|-3--3--3--2--|--3--3--3--2--2--2----------|-3-----------|----------------------|
E|----------3--|-----------3--3--3----------|-------------|----------------------|


CHORUS 0:43

   C chord diagramCC       Em chord diagramEmEm Bmadd11 A chord diagramAA  C chord diagramCC        G chord diagramGG           D chord diagramDD                               D chord diagramDD        RIFF 0:57
e|-0--0--0-------0-------0--0--0------------|-2-2------|-------0-----|------0-2-|    e|----0--3-|
B|-1--1--1-------0----2--1--1--1------------|-3---3----|---------3---|----3-3-3-|    B|-1--1----|
G|-0--0--0-------0----2--0--0--0--0--0--0---|-2-----2--|-----2-----2-|----2---2-|    G|-0--0----|
D|-2--2--2---2---0----2--2--2--2--0--0--0---|-0--------|---0---------|-3------0-|    D|---------|
A|-3--3--3---2---2----0--3--3--3--2--2--2---|----------|-3-----------|----------|    A|---------|
E|-----------0--------------------3--3--3---|-----------------------------------|    E|---------|


VERSE 2 0:58

   G chord diagramGG        C chord diagramCC        G chord diagramGG      D chord diagramDD                  G chord diagramGG         D chord diagramDD                    D5 chord diagramD5D5    D chord diagramDD
e|-3-3------0-0------3-3-0--2-3p2-0--0--0--------------|-2-2-----|---0-----|-----0--2-2-----|
B|-3---3----1---1----3------3--------1----1------------|-3---3---|-----3---|---3----3---3---|
G|-0-----0--0-----0--0------2--------0------0--0--0--0-|-2-----2-|-------2-|---2----2-----2-|
D|-0--------2--------0------0--------2---------0--0--0-|-0-------|---------|-3------0-------|
A|-2--------3--------2---------------3---------2--2--2-|---------|-3-------|----------------|
E|-3-----------------3-------------------------3--3--3-|---------|---------|----------------|

   C chord diagramCC        G chord diagramGG         C chord diagramCC         G chord diagramGG      D chord diagramDD       C chord diagramCC        G chord diagramGG         D chord diagramDD                           D chord diagramDD
e|-0--0--0--3--3------0--0------3--3---2-3p2---0-0------3-3-----|-2-2-----|--0-----|-----0----2---2-2-|
B|-1--1--1--3----3----1----1----3------3-------1---1----3---3---|-3---3---|----3---|---3---3--3---3-3-|
G|-0--0--0--0------0--0------0--0------2-------0-----0--0-----0-|-2-----2-|------2-|----------2---2-2-|
D|-2--2--2--0---------2---------0------0-------2--------0-------|-0-------|--------|-3--------0---0-0-|
A|-3--3--3--2---------3---------2--------------3--------2-------|---------|3-------|------------------|
E|----------3-------------------3-----------------------3-------|---------|--------|------------------|

   C chord diagramCC        G chord diagramGG   C chord diagramCC        G chord diagramGG         D chord diagramDD                               D chord diagramDD
e|-0--0--0--3-|-0--0--0--3--3--3-|-2-2-----|------0-----|---0------2-2-----|
B|-1--1--1--3-|-1--1--1--3--3--3-|-3---3---|--------3---|-----3----3---3---|
G|-0--0--0--0-|-0--0--0--0--0--0-|-2-----2-|----2-----2-|-------2--2-----2-|
D|-2--2--2--0-|-2--2--2--0--0--0-|-0-------|--0---------|-3--------0-------|
A|-3--3--3--2-|-3--3--3--2--2--2-|---------|3-----------|------------------|
E|----------3-|----------3--3--3-|---------|------------|------------------|


CHORUS 2 1:39

   C chord diagramCC       Em chord diagramEmEm Bmadd11 A chord diagramAA        C chord diagramCC   G chord diagramGG         D chord diagramDD                       Dsus2 chord diagramDsus2Dsus2 D chord diagramDD   D chord diagramDD       C chord diagramCC
e|-0--0--0------0--------------0---3--3--3-|-2---2-----|-----0-----|---0---2---2-2-2-|-0--0--0-|
e|-1--1--1------0----2---------1---3--3--3-|-3-----3---|-------3---|---3---3---3-3-3-|-1--1--1-|
G|-0--0--0------0----2---------0---0--0--0-|-2-------2-|---2-----2-|-------2---2-2-2-|-0--0--0-|
D|-2--2--2---2--0----2---------2---0--0--0-|-0---------|-----------|-3-----0---------|-2--2--2-|
A|-3--3--3---2--2----0---------3---2--2--2-|-----------|-3---------|-----------------|-3--3--3-|
E|-----------0---------------------3--3--3-|-----------|-----------|-----------------|---------|


INTERLUDE FIG.1 1:54
                                                                                            D5 chord diagramD5D5
e|------10-----10------8-----8-----7----7-----3-----3-----3------------2-------3-------3-2-|-5--5-5-|
B|---12-----12------10----10-----8----8-----5---5-------3---3---0----3---3---3---0---0-----|-3------|
G|-0------0-------0-----0------0----0-----5-------5---0-------0----2-------2-------2-------|--------|
D|-----------------------------------------------------------------------------------------|--------|
A|-----------------------------------------------------------------------------------------|--------|
E|-----------------------------------------------------------------------------------------|--------|

   C chord diagramCC                     C5 chord diagramC5C5      A chord diagramAA                     Esus4 chord diagramEsus4Esus4             A5 chord diagramA5A5      A5 chord diagramA5A5       A5 chord diagramA5A5
e|-0-0-----1-------1-----3-3-3-|-5-5----5---------5----5---5---5-|---------|-------|    |-------------|
B|-1---1-----1---1---1---1-1-1-|-2---2----h3----3---3--5---5---5-|---------|-------|    |-------------|
G|-0-----0-----0---------------|-2-----2-----2-------------------|---------|-----2-|    |-2---2-2-2-2-|
D|-2---------------------------|-2-------------------------------|-------2-|-----2-|    |-2---2-2-2-2-|
A|-3---------------------------|-0-------------------------------|-----3-0-|---3-0-|    |-0---0-0-0-0-|
E|-----------------------------|---------------------------------|-0-3-----|-3-----|    |-------------|
                                                                  End 1st Int. 2:17      End 2nd Int. 3:42

REPEAT VERSE 2:21

REPEAT CHORUS 3:02

REPEAT INTERLUDE FIG. 1 3:18

BRIDGE RHYTHM GUITAR x2 3:46

   F chord diagramFF F chord diagramFF      Bb chord diagramBbBb       F chord diagramFF F chord diagramFF            C chord diagramCC         F chord diagramFF       G chord diagramGG
e|-1-----------------1-------------|--------------------------------|
B|-1-----------------1-------------|--------------------------------|
G|-2--------3-3-3-3--2-------------|-5-5-5-5------------------------|
D|-3-3-3-3--3-3-3-3--3-3-3-3-3-3-3-|-5-5-5-5--3-3-3-3-5-5-5-5-5-5-5-|
A|-3-3-3-3--1-1-1-1--3-3-3-3-3-3-3-|-3-3-3-3--3-3-3-3-5-5-5-5-5-5-5-|
E|-1-1-1-1-----------1-1-1-1-1-1-1-|----------1-1-1-1-3-3-3-3-3-3-3-|

   F chord diagramFF F chord diagramFF      Bb chord diagramBbBb       F chord diagramFF F chord diagramFF             C chord diagramCC        F chord diagramFF        Bb chord diagramBbBb
e|-1-----------------1-------------|----------1----------------------------|
B|-1-----------------1-------------|----------1----------------------------|
G|-2--------3-3-3-3--2-------------|-5-5-5-5--2--------3-3-3-3-3-3-3-3-3-3-|
D|-3-3-3-3--3-3-3-3--3-3-3-3-3-3-3-|-5-5-5-5--3-3-3-3--3-3-3-3-3-3-3-3-3-3-|
A|-3-3-3-3--1-1-1-1--3-3-3-3-3-3-3-|-3-3-3-3--3-3-3-3--1-1-1-1-1-1-1-1-1-1-|
E|-1-1-1-1-----------1-1-1-1-1-1-1-|----------1-1-1-1----------------------|


BRIDGE LEAD GUITAR 4:07

e|------13----13----13----13----13----13-----13----13-|------15----15----15----15----15----15----15----15-|
B|---13-----13----13----13----13----13-----13----13---|----15----15----15----15----15----15----15----15---|
B|-10-----10----10----10----10----10----10-----10-----|-12----12----12----12----12----12----12----12------|
D|----------------------------------------------------|---------------------------------------------------| x2
A|----------------------------------------------------|---------------------------------------------------|
E|----------------------------------------------------|---------------------------------------------------|


INTERLUDE FIG. 2 04:28

   D chord diagramDD   G chord diagramGG        D chord diagramDD              D5 chord diagramD5D5      C chord diagramCC                C5 chord diagramC5C5      A chord diagramAA                    Esus4 chord diagramEsus4Esus4         A5 chord diagramA5A5     A5 chord diagramA5A5
e|-2-|-3--3--3--2-2---3---3p2--5-5-5-|-0-0---1-----1----3-3-3-|-5-5----5--------5----5-5-5-|----------------|
B|-3-|-3--3--3--3--3-----------3-3-3-|-1--1---1--1---1--1-1-1-|-2---2----h3---3---3--5-5-5-|----------------|
G|-2-|-0--0--0--2---2---2------------|-0---0---0--------------|-2-----2-----2--------------|--------------2-|
D|-0-|-0--0--0--0--------------------|-2----------------------|-2--------------------------|-------2------2-|
A|---|-2--2--2-----------------------|-3----------------------|-0--------------------------|-----3-0----3-0-|
E|---|-3--3--3-----------------------|------------------------|----------------------------|-0-3------3-----|


VERSE 3 04:55

    C chord diagramCC    G chord diagramGG                G chord diagramGG       D chord diagramDD        C chord diagramCC                  D chord diagramDD                                  D5 chord diagramD5D5
e|--0-0-----3--------0--------3---2--3p2-|-0-0---------3------2-2----|-------0-----|-------0--------2---|
B|--1-1------3--------1--------3--3------|-1--1---------3-----3--3---|---------3---|-----3---3----3---3-|
G|--0------0---0---0----0---0-----2------|-0---0----------0---2------|-----2-----2-|---2-------2--2-----|
D|--2----0-------2----------------0------|-3---------0---------------|---0---------|-3------------------|
A|--3----2-------3--------2--------------|-3--------2--------------0-|-3-----------|--------------------|
E|-------3----------------3--------------|--------3------------------|-------------|--------------------|

   C chord diagramCC       G chord diagramGG        C chord diagramCC      Bm chord diagramBmBm#5     D chord diagramDD        C chord diagramCC       G chord diagramGG         D chord diagramDD                                  D chord diagramDD
e|-0-0------3---------0-------3-----2--3p2-|-0-0-------3-----|-2-2---|-------0-----|-------0------2-|
B|-1---1------3-----1---1---3---3---3------|-1---1-------3---|-3---3-|---------3---|-----3---3----3-|
G|-0-------0----0---0-------0-------2------|-0----0--0-----0-|-2-----|-----2-----2-|---2-------2--2-|
D|-2-------0--------2-------0-------0------|-2-------0-------|-0-----|---0---------|-3------------0-|
A|-3-------2--------3-------2--------------|-3-------2-------|-------|-3-----------|----------------|
E|---------3-------------------------------|---------3-------|-------|-------------|----------------|

   C chord diagramCC        G chord diagramGG   C chord diagramCC        G chord diagramGG        D chord diagramDD                   Asus4 chord diagramAsus4Asus4  D chord diagramDD
e|-0--0--0--3-|-0--0--0--3--3--3--2-2----|---0-----|----0--0-2-|
B|-1--1--1--3-|-1--1--1--3--3--3--3---3--|-----3---|----3--3-3-|
G|-0--0--0--0-|-0--0--0--0--0--0--2-----2|-------2-|----2--3-2-|
D|-2--2--2--0-|-2--2--2--0--0--0--0------|---------|-3-------0-|
A|-3--3--3--2-|-3--3--3--2--2--2---------|-3-------|-----------|
E|----------3-|----------3--3--3---------|---------|-----------|


CHORUS 4 5:37 ADD BARS PICKED NOTES

   C chord diagramCC        Em chord diagramEmEm Bmadd11 A chord diagramAA    C chord diagramCC    G chord diagramGG          D chord diagramDD                             D chord diagramDD     C chord diagramCC
e|-0--0--0-------0----------0----3--3--3--|-2---2-----|----0-----|---0----2-2-|-0--0--0-|
B|-1--1--1-------0-----2----1----3--3--3--|-3-----3---|------3---|-----3--3-3-|-1--1--1-|
G|-0--0--0-------0-----2----0----0--0--0--|-2-------2-|--------2-|--------2-2-|-0--0--0-|
D|-2--2--2--2----0-----2----2----0--0--0--|-0---------|----------|-3------0-0-|-2--2--2-|
A|-3--3--3--2----2-----0----3----2--2--2--|-----------|-3--------|------------|-3--3--3-|
E|----------0--------------------3--3--3--|-----------|----------|------------|---------|


INTERLUDE/OUTRO 5:52
                                                                                        D5 chord diagramD5D5
e|------10-----10------8-----8-----7----7-----3-----3-----3------------2-------3---3p2-|-5--5--5-|
B|---12-----12------10----10-----8----8-----5---5-------3---3---0----3---3---3---------|-3--3--3-|
G|-0------0-------0-----0------0----0-----5-------5---0-------0----2-------2-----2-----|---------|
D|-------------------------------------------------------------------------------------|---------|
A|-------------------------------------------------------------------------------------|---------|
E|-------------------------------------------------------------------------------------|---------|

   C chord diagramCC                   C5 chord diagramC5C5      A chord diagramAA                    Esus4 chord diagramEsus4Esus4               A5 chord diagramA5A5      A6 chord diagramA6A6  A5 chord diagramA5A5 Esus2 chord diagramEsus2Esus2 A5 chord diagramA5A5
e|-0-0----1-------1----3-3-3-|-5-5----5--------5----5---5---5-|-----------------2-2------2-----------|
B|-1---1----1---1---1--1-1-1-|-2---2----h3---3---3--5---5---5-|-----------------5-5------5-----------|
G|-0-----0----0--------------|-2-----2-----2--------2---2---2-|-----------------2-2--2-------2--2-2-2|
D|-2-------------------------|-2------------------------------|---------2-------2-2--2-------2--2-2-2|
A|-3-------------------------|-0------------------------------|------3--0----3--0-0--0-------0--0-0-0|
E|---------------------------|--------------------------------|-0--3-------3-------------------------|

 A chord diagramAA        Asus chord diagramAsusAsus        A5 chord diagramA5A5
e|----5---5--5---5---5--5---5---5-|
B|-2----2----3-----3----5---5---5-|
G|-2---------2----------2---2---2-|
D|-2---------2----------2---2---2-| x5
A|-0---------0----------0---0---0-|
E|--------------------------------|


Tab legend:

h hammer on
p pull of

Comment this song and these guitar tabs

Do you have corrections, comments on the guitar tabs, thoughts about the song or a message to the author? Write them below.