Log in

One click and you are in

Login with Facebook Login with Google

Why sign up and log in

Guitar Tabs Explorer
Tegan And Sara bass tabs for Northshore

Bass tabs

Tuning: Standard


INTRO = GUITAR ONLY
VERSE
G |--------------------|--------------------|--------------------|--------------------|
D |-4---4---4-7-7-7--7-|--------------------|-4---4---4-7-7-7--7-|--------------------|
A |--------------------|-5---5---5-7-7-7--7-|--------------------|-5---5---5-7-7-7--7-|
E |--------------------|--------------------|--------------------|--------------------|X2


CHORUS
G |-----------------|-----------------|-----------------|-----------------|
D |-----------------|-----------------|-----------------|-----------------|
A |-----------------|-----------------|-5-5-5-5-5-5-5-5-|-5-5-5-5-5-5-5-5-|
E |-2-2-2-2-2-2-2-2-|-2-2-2-2-2-2-2-2-|-----------------|-----------------|

G |-----------------|-----------------|-----------------|-----------------|
D |-----------------|-----------------|-----------------|-----------------|
A |-----------------|-----------------|-7-7-7-7-7-7-7-7-|-7-7-7-7-7-7-7-7-|
E |-5-5-5-5-5-5-5-5-|-5-5-5-5-5-5-5-5-|-----------------|-----------------|


FILL
G |--------------------|--------------------|
D |-4---4---4-7-7-7--7-|--------------------|
A |--------------------|-5---5---5-7-7-7--7-|
E |--------------------|--------------------|


VERSE
G |--------------------|--------------------|--------------------|--------------------|
D |-4---4---4-7-7-7--7-|--------------------|-4---4---4-7-7-7--7-|--------------------|
A |--------------------|-5---5---5-7-7-7--7-|--------------------|-5---5---5-7-7-7--7-|
E |--------------------|--------------------|--------------------|--------------------|X2


CHORUS
G |-----------------|-----------------|-----------------|-----------------|
D |-----------------|-----------------|-----------------|-----------------|
A |-----------------|-----------------|-5-5-5-5-5-5-5-5-|-5-5-5-5-5-5-5-5-|
E |-2-2-2-2-2-2-2-2-|-2-2-2-2-2-2-2-2-|-----------------|-----------------|

G |-----------------|-----------------|-----------------|-----------------|
D |-----------------|-----------------|-----------------|-----------------|
A |-----------------|-----------------|-7-7-7-7-7-7-7-7-|-7-7-7-7-7-7-7-7-|
E |-5-5-5-5-5-5-5-5-|-5-5-5-5-5-5-5-5-|-----------------|-----------------|


FILL
G |--------------------|--------------------|--------------------|--------------------|
D |-4---4---4-7-7-7--7-|--------------------|-4---4---4-7-7-7--7-|--------------------|
A |--------------------|-5---5---5-7-7-7--7-|--------------------|-5---5---5-7-7-7--7-|
E |--------------------|--------------------|--------------------|--------------------|


MUSIC BIT
G |-----------------|-----------------|-----------------|-----------------|
D |-4---4-4-7---7-7-|-----------------|-4---4-4-7---7-7-|-----------------|
A |-----------------|-5---5-5-7---7-7-|-----------------|-5---5-5-7---7-7-|
E |-----------------|-----------------|-----------------|-----------------|X2


FILL
G |--------------------|--------------------|
D |-4---4---4-7-7-7--7-|--------------------|
A |--------------------|-5---5---5-7-7-7--7-|
E |--------------------|--------------------|


VERSE
G |--------------------|--------------------|--------------------|--------------------|
D |-4---4---4-7-7-7--7-|--------------------|-4---4---4-7-7-7--7-|--------------------|
A |--------------------|-5---5---5-7-7-7--7-|--------------------|-5---5---5-7-7-7--7-|
E |--------------------|--------------------|--------------------|--------------------|X2


CHORUS
G |-----------------|-----------------|-----------------|-----------------|
D |-----------------|-----------------|-----------------|-----------------|
A |-----------------|-----------------|-5-5-5-5-5-5-5-5-|-5-5-5-5-5-5-5-5-|
E |-2-2-2-2-2-2-2-2-|-2-2-2-2-2-2-2-2-|-----------------|-----------------|

G |-----------------|-----------------|-----------------|-----------------|
D |-----------------|-----------------|-----------------|-----------------|
A |-----------------|-----------------|-7-7-7-7-7-7-7-7-|-7-7-7-7-7-7-7-7-|
E |-5-5-5-5-5-5-5-5-|-5-5-5-5-5-5-5-5-|-----------------|-----------------|

G |-----------------|-----------------|-----------------|-----------------|
D |-----------------|-----------------|-----------------|-----------------|
A |-----------------|-----------------|-5-5-5-5-5-5-5-5-|-5-5-5-5-5-5-5-5-|
E |-2-2-2-2-2-2-2-2-|-2-2-2-2-2-2-2-2-|-----------------|-----------------|

G |-----------------|-----------------|-----------------|-----------------|
D |-----------------|-----------------|-----------------|-----------------|
A |-----------------|-----------------|-7-7-7-7-7-7-7-7-|-7-7-7-7-7-7-7-7-|
E |-5-5-5-5-5-5-5-5-|-5-5-5-5-5-5-5-5-|-----------------|-----------------|

G |-----------------|-----------------|-----------------|-----------------|
D |-----------------|-----------------|-----------------|-----------------|
A |-----------------|-----------------|-5-5-5-5-5-5-5-5-|-5-5-5-5-5-5-5-5-|
E |-2-2-2-2-2-2-2-2-|-2-2-2-2-2-2-2-2-|-----------------|-----------------|

G |-----------------|-----------------|-----------------|-----------------|
D |-----------------|-----------------|-----------------|-----------------|
A |-----------------|-----------------|-7-7-7-7-7-7-7-7-|-7-7-7-7-7-7-7-7-|
E |-5-5-5-5-5-5-5-5-|-5-5-5-5-5-5-5-5-|-----------------|-----------------|


ENDING
G |-----------------|-----------------|-----------------|-----------------|
D |-----------------|-----------------|-----------------|-----------------|
A |-----------------|-----------------|-5-5-5-5-5-5-5-5-|-5-5-5-5-5-5-5-5-|
E |-2-2-2-2-2-2-2-2-|-2-2-2-2-2-2-2-2-|-----------------|-----------------|

G |-----------------|-----------------|-----------------|---------------------|
D |-----------------|-----------------|-----------------|-----------------4---|
A |-----------------|-----------------|-7-7-7-7-7-7-7-7-|-7-7-7-7-7-7-7-7-----|
E |-5-5-5-5-5-5-5-5-|-5-5-5-5-5-5-5-5-|-----------------|-------------------2-|
ⓘ Bass guitar tab for 'Northshore' by Tegan And Sara, an indie band formed in 1995 from Calgary, Alberta, Canada. Tegan And Sara is known for their excitable rock/pop music.

Almost there ...

Sign in to get your own page with links to favourite songs and more. You are just one click away...

Login with Facebook Login with Google