Log in

One click and you are in

Login with Facebook Login with Google

Why sign up and log in

Guitar Tabs Explorer
Tegan And Sara tabs for Heavy

Guitar tabs

Tegan & Sara
HEAVY


INTRO

e|------2---2---2---2--|-----------------|------0---0---0---0--|
b|------3---3---3---3--|----------3---2--|------2---2---2---2--|
g|------4---4---4---4--|------4----------|------2---2---2---2--|
d|------4---4---4---4--|--4--------------|--0---2---2---2---2--|
a|--0---2---2---2---2--|-----------------|------0---0---0---0--|
A chord diagramE MajorE|------2---2---2---2--|-----------------|---------------------|
e|-----------------|------2---2---2---2--|------0---3---2--|
b|------3---2------|------3---3---3---3--|-----------------|
g|--2-----------4--|------4---4---4---4--|--4--------------|
d|-----------------|------4---4---4---4--|-----------------|
a|-----------------|--0---2---2---2---2--|-----------------|
A chord diagramE MajorE|-----------------|------2---2---2---2--|-----------------|


e|------0---0---0---0--|------3---2---0--|------2---2---2---2--|
b|--0---2---2---2---2--|--2--------------|--0---3---3---3---3--|
g|------2---2---2---2--|-----------------|------4---4---4---4--|
d|------2---2---2---2--|-----------------|------4---4---4---4--|
a|------0---0---0---0--|-----------------|------2---2---2---2--|
A chord diagramE MajorE|---------------------|-----------------|------2---2---2---2--|


e|--------3--2--5--3--7--9--|--7--5--3--2-------------------------|
b|--0--5--------------------|--------------3--2-------------------|
g|--------------------------|--------------------4--3-------------|
d|--------------------------|--------------------------5--4--4/7--|
a|--------------------------|-------------------------------------|
A chord diagramE MajorE|--------------------------|-------------------------------------|

VERSE

e|--2---X---X---X---X--|--2---X---X---X---X--|
b|--3---X---X---X---X--|--3---X---X---X---X--|
g|--4---X---X---X---X--|--4---X---X---X---X--|
d|--4---X---X---X---X--|--4---X---X---X---X--|   x3
a|--2---X---X---X---X--|--2---X---X---X---X--|
A chord diagramE MajorE|--2---X---X---X---X--|--2---X---X---X---X--|

e|--0---X---X---X---X--|--0---X---X---X---X--|
b|--2---X---X---X---X--|--2---X---X---X---X--|
g|--2---X---X---X---X--|--2---X---X---X---X--|
d|--2---X---X---X---X--|--2---X---X---X---X--|   x3
a|--0---X---X---X---X--|--0---X---X---X---X--|
A chord diagramE MajorE|---------------------|---------------------|

e|-------------------------|
b|--3-p-2---2-p-0----------|
g|------------------4-p-0--|
d|-------------------------|
a|-------------------------|
A chord diagramE MajorE|-------------------------|


It s to easy to play.
Have Fun!!!

AdEs
ⓘ Guitar tab for 'Heavy' by Tegan And Sara, an indie band formed in 1995 from Calgary, Alberta, Canada. Tegan And Sara is known for their excitable rock/pop music.

Almost there ...

Sign in to get your own page with links to favourite songs and more. You are just one click away...

Login with Facebook Login with Google