Log in

One click and you are in

Login with Facebook Login with Google

Why sign up and log in

Guitar Tabs Explorer
Tegan And Sara bass tabs for Back in your head

Back In Your Head bass tab by Tegan And Sara

Tegan And Sara bass tabs for Back in your head

Bass tabs

-------------------------------------------------------------------------------
			   Back In Your Head - Tegan and Sara
-------------------------------------------------------------------------------

Tabbed By : Amberly F.
INTRO:
G|-------------------------------------------------|
D|-------------------------------------------------|
A|------3-11------3-11------3-11------3-11-1-------|
E|-1-11------1-11------1-11------1-11--------------|

**NO BASS TIL CHORUS**


CHORUS:
G|--------------------------|
D|--------------------------|
A|------3-3-1-1------33-11--|  X2
E|-1-11---------1-11--------|

G|------------------------------|
D|---------------------1010-88--|
A|------3-3-1-1--8-88-----------| (those are 10s)
E|-1-11-------------------------|

G|------------------|
D|-7---5---00---3---|
A|---5---3----0-----| X4
E|------------------|

2ND VERSE:
G|------------------------------|
D|------------------------------|
A|-5-55--5-55--7-3-33--3-33-3---|
E|------------------------------|

G|------------------------------|
D|------------------------------|
A|-5-55--5-55-7--8-88--8-88-7---|
E|------------------------------|

G|------------------------------|
D|------------------------------|
A|-5-55--5-55-7--3-33--3-33-7---|
E|------------------------------|

G|------------------------------|
D|------------------------------|
A|-5-55--5-55-7--8-88--8-88-7---|
E|------------------------------|

CHORUS 2:
G|---------------------------|
D|---------------------------|
A|------3-3-1-1------33-11---| X3
E|-1-11---------1-11---------|

G|-----------------|
D|-7---5---00---3--|
A|---5---3----0----|
E|-----------------|

"Run, run, run.."
G|---------------|
D|---------------|
A|-3-33-3-5-55-5-|
E|---------------|

G|-----|
D|-----|
A|-88--|
E|-----|


CHORUS 3/ OUTRO
G|-------------|
D|-------------|
A|------33-11--| X3
E|-1-11--------|

G|----------------|
D|----------------|
A|-------3-3-1-1--| X3
E|-1-11-----------|

G|----------------|
D|----------------|
A|------3-3-1-----|
E|-1-11-----------|


| / slide up
| \ slide down
| h hammer-on
| p pull-off
| ~ vibrato
| + harmonic
| x Mute note
ⓘ Bass guitar tab for 'Back In Your Head' by Tegan And Sara, an indie band formed in 1995 from Calgary, Alberta, Canada. Tegan And Sara is known for their excitable rock/pop music.

Almost there ...

Sign in to get your own page with links to favourite songs and more. You are just one click away...

Login with Facebook Login with Google