Log in

One click and you are in

Login with Facebook Login with Google

Why sign up and log in

Guitar Tabs Explorer
Teenage Bottlerocket guitar tabs for Wild hair across my ass

Wild Hair Across My Ass tab by Teenage Bottlerocket

Teenage Bottlerocket guitar tabs for Wild hair across my ass

Guitar tabs

Tuning: Standard (E A D G B E)

Teenage Bottlerocket Wild Hair (across My Ass)


Intro:
e|-----------------|     |-----------------|-----------------|-----------------|-----------------|
B|-----------------| x10 |-----------------|-----------------|-----------------|-----------------|
G|-----------------|     |-----------------|-----------------|-----------------|-----------------|
G|-----------------|     |-----------------|-5-5-5-5-5-5-5-5-|-----------------|-----------------|
A|-5-5-5-5-5-5-5-5-|     |-2-2-2-2-2-2-2-2-|-3-3-3-3-3-3-3-3-|-5-5-5-5-5-5-5-5-|-5-5-5-5-5-5-5-5-|
E|-3-3-3-3-3-3-3-3-|     |-0-0-0-0-0-0-0-0-|-----------------|-3-3-3-3-3-3-3-3-|-3-3-3-3-3-3-3-3-|
   . . . . . . . .         . . . . . . . .   . . . . . . . .   . . . . . . . .   . . . . . . . .
Chorus:
e|-----------------|-------------------------|-----------------|-----------------|
B|-----------------|-------------------------|-----------------|-----------------|
G|-9-9-9-9-9-9-9-9-|-------------------------|-----------------|-----------------|
G|-9-9-9-9-9-9-9-9-|-10-10-10-10-10-10-10-10-|-5-5-5-5-5-5-5-5-|-5-5-5-5-5-5-5-5-|
A|-7-7-7-7-7-7-7-7-|-10-10-10-10-10-10-10-10-|-5-5-5-5-5-5-5-5-|-5-5-5-5-5-5-5-5-|
E|-----------------|-8--8--8--8--8--8--8--8--|-3-3-3-3-3-3-3-3-|-3-3-3-3-3-3-3-3-|


Verse:
e|-----------------|-----------------|-----------------|-----------------|    |-----------------|
B|-----------------|-----------------|-----------------|-----------------| x1 |-----------------| x4
G|-----------------|-----------------|-----------------|---------5-x-5-x-|    |-----------------|
G|-5-5-5-5-5-5-5-5-|-5-5-5-5-5-5-5-5-|-5-5-5-5-5-5-5-5-|-5-5-5-5-5-x-5-x-|    |-5-5-5-5-5-5-5-5-|
A|-5-5-5-5-5-5-5-5-|-5-5-5-5-5-5-5-5-|-5-5-5-5-5-5-5-5-|-5-5-5-5-3-x-3-x-|    |-5-5-5-5-5-5-5-5-|
E|-3-3-3-3-3-3-3-3-|-3-3-3-3-3-3-3-3-|-3-3-3-3-3-3-3-3-|-3-3-3-3---------|    |-3-3-3-3-3-3-3-3-|


Chorus:
e|-----------------|-------------------------|-----------------|-----------------|
B|-----------------|-------------------------|-----------------|-----------------| x2
G|-9-9-9-9-9-9-9-9-|-------------------------|-----------------|-----------------|
G|-9-9-9-9-9-9-9-9-|-10-10-10-10-10-10-10-10-|-5-5-5-5-5-5-5-5-|-5-5-5-5-5-5-5-5-|
A|-7-7-7-7-7-7-7-7-|-10-10-10-10-10-10-10-10-|-5-5-5-5-5-5-5-5-|-5-5-5-5-5-5-5-5-|
E|-----------------|-8--8--8--8--8--8--8--8--|-3-3-3-3-3-3-3-3-|-3-3-3-3-3-3-3-3-|

Bridge:
e|-----------------|-----------------|
B|-----------------|-----------------|
G|-----------------|-----------------|
G|-5-5-5-5-5-5-5-5-|-5-5-5-5-5-5-5-5-|
A|-5-5-5-5-5-5-5-5-|-5-5-5-5-5-5-5-5-|
E|-3-3-3-3-3-3-3-3-|-3-3-3-3-3-3-3-3-|


Solo:
e|-----------------|-------------------------|-----------------|-----------------|
B|-----------------|-------------------------|-----------------|-----------------| x3
G|-9-9-9-9-9-9-9-9-|-------------------------|-----------------|-7-7-7-7-7-7-7-7-|
G|-9-9-9-9-9-9-9-9-|-10-10-10-10-10-10-10-10-|-5-5-5-5-5-5-5-5-|-7-7-7-7-7-7-7-7-|
A|-7-7-7-7-7-7-7-7-|-10-10-10-10-10-10-10-10-|-5-5-5-5-5-5-5-5-|-5-5-5-5-5-5-5-5-|
E|-----------------|-8--8--8--8--8--8--8--8--|-3-3-3-3-3-3-3-3-|-----------------|

e|-------------------------|    |-----------------|    |-----------------|
B|-------------------------| x4 |-----------------| x1 |-----------------| x7
G|-------------------------|    |-9---------------|    |-----------------|
G|-10-10-10-10-10-10-10-10-|    |-9---------------|    |-----------------|
A|-10-10-10-10-10-10-10-10-|    |-7---------------|    |-----------------|
E|-8--8--8--8--8--8--8--8--|    |-----------------|    |-----------------|


Chorus:
e|-----------------|-------------------------|-----------------|-----------------|
B|-----------------|-------------------------|-----------------|-----------------|
G|-----------------|-------------------------|-----------------|-----------------|
G|-9-9-9-9-9-9-9-9-|-------------------------|-----------------|-----------------|
A|-7-7-7-7-7-7-7-7-|-10-10-10-10-10-10-10-10-|-5-5-5-5-5-5-5-5-|-5-5-5-5-5-5-5-5-|
E|-----------------|-8--8--8--8--8--8--8--8--|-3-3-3-3-3-3-3-3-|-3-3-3-3-3-3-3-3-|
   . . . . . . . .   .  .  .  .  .  .  .  .    . . . . . . . .   . . . . . . . .

e|-----------------|-------------------------|-----------------|-----------------|
B|-----------------|-------------------------|-----------------|-----------------|
G|-----------------|-------------------------|-----------------|-----------------|
G|-9-9-9-9-9-9-9-9-|-------------------------|-----------------|-5-5-5-5-5-5-5-5-|
A|-7-7-7-7-7-7-7-7-|-10-10-10-10-10-10-10-10-|-5-5-5-5-5-5-5-5-|-5-5-5-5-5-5-5-5-|
E|-----------------|-8--8--8--8--8--8--8--8--|-3-3-3-3-3-3-3-3-|-3-3-3-3-3-3-3-3-|
   . . . . . . . .   .  .  .  .  .  .  .  .    . . . . . . . .

e|-----------------|-------------------------|-----------------|-----------------|
B|-----------------|-------------------------|-----------------|-----------------| x3
G|-9-9-9-9-9-9-9-9-|-------------------------|-----------------|-----------------|
G|-9-9-9-9-9-9-9-9-|-10-10-10-10-10-10-10-10-|-5-5-5-5-5-5-5-5-|-5-5-5-5-5-5-5-5-|
A|-7-7-7-7-7-7-7-7-|-10-10-10-10-10-10-10-10-|-5-5-5-5-5-5-5-5-|-5-5-5-5-5-5-5-5-|
E|-----------------|-8--8--8--8--8--8--8--8--|-3-3-3-3-3-3-3-3-|-3-3-3-3-3-3-3-3-|

e|-----------------|-------------------------|-----------------|-----------------|
B|-----------------|-------------------------|-----------------|-----------------|
G|-9-9-9-9-9-9-9-9-|-------------------------|-----------------|-----------------|
G|-9-9-9-9-9-9-9-9-|-10-10-10-10-10-10-10-10-|-5-5-5-5-5-5-5-5-|-5-x-------------|
A|-7-7-7-7-7-7-7-7-|-10-10-10-10-10-10-10-10-|-5-5-5-5-5-5-5-5-|-5-x-------------|
E|-----------------|-8--8--8--8--8--8--8--8--|-3-3-3-3-3-3-3-3-|-3-x-------------|


************************************

| .  palm muting
| x  Dead note

************************************

Almost there ...

Sign in to get your own page with links to favourite songs and more. You are just one click away...

Login with Facebook Login with Google