Log in

One click and you are in

Login with Facebook Login with Google

Why sign up and log in

Guitar Tabs Explorer
Tears For Fears chords for Falling down

Guitar chords with lyrics

TEARS FOR FEARS: "FALLING DOWN"
(Roland Orzabal)
from the album Raoul and the Kings of Spain
Verse one:
---------------

----------------------------------------------------------
---2---------2-----------------------------------2-------
---2---------2---------2-------2-------2--------2-------
---0---------0---------0-------0-------0--------0--------
---0---------3---------0-------3-------3--------0--------
------------------------0----------------------------------
Is...


--------------------------------------------0----------
---2-------2--------2-------2-----2-------2----------
---2-------2--------2-------2-----2-------2----------
---0-------0--------0-------0-----0-------------------
---0-------3--------1-------0-----0--------------------
----------------------------------------------------------
   Has      ...


What's ..
That's ..

Some ..
Some ..
Some ..
Just ..

Chorus:
-----------
         A chord diagramC majorC
Well ..
                                      A chord diagramE minorEm
While ..
               A chord diagramC majorC
>From ..
                                        A chord diagramE minorEm
Clung ..
                      A chord diagramC majorC
Yeah ..

Doing ..
                                         A chord diagramE minorEm
Trying ..


Verse two (as verse one):
---------------------------------


Chorus Two (as chorus one):
-------------------------------------

(Repeat verse one omitting second stanza)


Ending:
-----------
A chord diagramC majorC         A chord diagramE minorEm
Falling ..
A chord diagramC majorC         A chord diagramE minorEm
Falling ..
A chord diagramC majorC         A chord diagramE minorEm
Falling ..
A chord diagramC majorC         A chord diagramE minorEm
Falling ..

(Play verse "riff" twice ending with slight crescendo on second time)


--- Matt (iaovertigo@aol.com)

Other versions of Falling Down

Falling downTabs

Almost there ...

Sign in to get your own page with links to favourite songs and more. You are just one click away...

Login with Facebook Login with Google