Log in

One click and you are in

Login with Facebook Login with Google

Why sign up and log in

Guitar Tabs Explorer
The Tea Party tabs for Walking wounded acoustic

Guitar tabs

Transcriber: spoonman05@yahoo.com


Tuning: DADADE (ala Save Me, Messenger, etc.)

This can probably be played with CGCGCD also.  If you
watch a live clip, Jeff plays Wounded like he does
Messenger, fretting the top 3 strings at the same
position, which must mean an open tuning.

Not quite sure about the verse, play around a little.

Intro part

--------------------------------------------
--------------------------------------------
--------------------------------------------
--------------------------------------------
---5-----7--8----5-----7--8-----5-----------
---5-----7--8----5-----7--8-----5-----------


Verse

--0------------------------------------
--0------3------8------7---------------
--0------3------8------7---------------
--5------3------8------7---------------
--5------3------8------7---------------
--5------------------------------------


Chorus

--0------0------0------0----------------
--0------0------0------0----------------
--0------0------0------0----------------
--5------3------1------0----------------
--5------3------1------0----------------
--5------3------1------0----------------


Bridge:                   ...how does it feel?

--0------0------0-------0------0----0-----0------0----
--0------0------0-------0------0----0-----0------0----
--0------0------0-------0------0----0-----0------0----
--5------7------8------10------7----7-----3------0----
--5------7------8------10------7----7-----3------0----
--5------7------8------10------7----7-----3------0----

My first tab, ain't too bad.


__________________________________

ⓘ Guitar tab for 'Walking Wounded Acoustic' by The Tea Party, a rock band formed in 1990 from Windsor, Ontario

Other versions of Walking Wounded Acoustic

Walking woundedTabs

Almost there ...

Sign in to get your own page with links to favourite songs and more. You are just one click away...

Login with Facebook Login with Google