Log in

One click and you are in

Login with Facebook Login with Google

Why sign up and log in

Guitar Tabs Explorer
James Taylor tabs for September grass

Guitar tabs with lyrics

------------------------------
-Album:  October Road (2002) -
------------------------------
-Tabbed By: Craig Austin     -
-           2/22/03          -
------------------------------

Standard Tuning
Capo 2nd
Times from Album Version


Intro (x2)

[0:00]

---0-0-----0-0-----3-0-0-------0-
---3-2-----0-2-----2-2-2---2---0-
---2-2-----1-2-----3-3-2-2-----1-
---2-2-----2-2---0-0-0-2-------2-
-0-0-0---0-x-0-----x-x-x-------x-
---x-x-----x-0-----x-x-x-------x-



Verse (x4 - hammer-on occasionally skipped)

1st - [0:19] - "The sun's not so hot..."
2nd - [1:26] - "Oh the memory is like..."
3rd - [2:55] -"Do you see those ants..."

-0-0--0-0---0h3-0-0-------0-
-2-0--3-2---2-2-2-2---2---0-
-2-2--2-2---3-3-3-2-2-----1-
-2-2--2-2---0-0-0-2-------2-
-0-0--0-0---x-x-x-x-------x-
-x-x--x-x---x-x-x-x-------x-


Post-Verse

1st - [0:58] - "So, I'll be king..."
2nd - [2:04] - "But that was a long time ago..."
3rd - [3:15] - "We're so small and the world..."

----0--------0--------0----0----0-0---
---2-2------3-3------2----2----2-2-2--
--2---2----2---2----2----2----2-------
-------2--------2------------2--------
-------------------0----4-------------
-2--------4---------------------------



Chorus (a bit different each time it is repeated)

"Won't you lie down..." [1:07],[2:14],[3:26]
variation - [4:05]

---0-0--0-0---3-0-0-------0-
---3-2--0-2---2-2-2-2--2--0-
---2-2--2-2---3-3-2---2---1-
---2-2--2-2---0-0-2-------2-
-0-0-0--0-0---x-x-x-------x-
---x-x--x-x---x-x-x-------x-


Interlude

[2:33] - "Oh, September Grass is the sweetest kind..."

-0---0----------------0-------------------------
-0--2---------------2---------------------------
-2-2-------------2-2-2--------------------------
-2---------2-----2--------2------0----2----0----
-0-------2---2---0------4---2--4---2h4-2-4------
-x---------------x------------------------------

----5-3p2------5----
---------3----------
---4------4---------
--4--------4--------
-2----------2-------
--------------------


Coda

[3:43] - "Lie down. Lie Down..."

Chords repeated more times than shown

-x-x-x-x-x-x-x-
-2-2-3-3-2-0-0-
-2-2-2-2-2-2-2-
-2-2-2-2-2-2-2-
-x-x-x-x-x-x-x-
-x-x-x-x-x-x-x-

Then, various parts of the chorus are played.
The song ends on A chord diagramA augmentedA (x02220).

Almost there ...

Sign in to get your own page with links to favourite songs and more. You are just one click away...

Login with Facebook Login with Google