Log in

One click and you are in

Login with Facebook Login with Google

Why sign up and log in

Guitar Tabs Explorer
James Taylor chords for My travelling star

Guitar chords

Song - My Travelling Star

Artist – James Taylor

Album – October Road

 

This is a great song incorporating typical James

 Taylor style syncopation and chord sequences.

 

The timing is a little tricky so I use a simple picking

pattern behind the vocal to keep things smooth.

 


Intro and break

 

A               A(f#bass)       Dmaj7          A chord diagramE6E6

----0---------------0-----------------0-------------0h2p0-------

0h2-------2---0-h-2-------2---0-h-2---------0---0h2------020--0-

------2h4---2---------2h4---2-------2-----2---2-------------2---

--------------------------------0-------0-----------------------

0-------0-------------------------------------------------------

----------------2-------2-----------------------0-------0-------

 

A               A(f#bass)       Dmaj7           E6

----0---------------0-----------0h2---0-------------------------

0p2-------2---0-h-2-------2---0-------------2---2-----0-------0-

------2h4---2---------2h4---2-------2-----2---2-----1-----1h2---

--------------------------------0-------0---------2-------------

0-------0-------------------------------------------------------

----------------2-------2-----------------------0-------0-------

 

 

Verse

 

A chord diagramA augmentedA / / / A chord diagramA augmentedA (f#bass) / / / A chord diagramBm7Bm7 / / / A chord diagramBm7Bm7 (e bass) / / /

A chord diagramA augmentedA / / / A chord diagramA augmentedA (f#bass) / / / A chord diagramBm7Bm7 / / / A chord diagramBm7Bm7 (e bass) / / /

A chord diagramA augmentedA / / / A chord diagramE minor 7Em7 / / / A chord diagramDmaj7Dmaj7 / / / A chord diagramC#7C#7 / / /

A chord diagramF# minorF#m / / / A chord diagramF#m7F#m7 / / / A chord diagramBm7Bm7 / / / A chord diagramBm7Bm7 (e bass) / / /

 


Chorus

 

A chord diagramDmaj7Dmaj7 / A chord diagramC#7C#7 / A chord diagramF# minorF#m / A chord diagramE minor 7Em7 /

A chord diagramDmaj7Dmaj7 / A chord diagramC#7C#7 / A chord diagramF# minorF#m / A chord diagramE minor 7Em7 /

A chord diagramDmaj7Dmaj7 / A chord diagramC#7C#7 / A chord diagramF# minorF#m / A chord diagramE minor 7Em7 /

A chord diagramDmaj7Dmaj7 / A chord diagramC#7C#7 / A chord diagramF# minorF#m / A chord diagramE minor 7Em7 /

 

 

Chords

 

A           OO222O

A chord diagramA augmentedA (f#bass)  2x2220

Dmaj7       xx0220

E6          022120

Bm7         x24232

A chord diagramBm7Bm7 (e bass)0x4232

Em7         022030

C#7         x43420

F#m         244222

                               F#m7        242222

                                        

russ@weeksville.fsnet.co.uk

Almost there ...

Sign in to get your own page with links to favourite songs and more. You are just one click away...

Login with Facebook Login with Google