Log in

One click and you are in

Login with Facebook Login with Google

Why sign up and log in

Guitar Tabs Explorer
Taste tabs for Morning sun

Guitar tabs with lyrics

THE TASTE (featuring Rory Gallagher) - Morning Sun

A chord diagramA augmentedA groovy Rock-composition of the early Rory when he still was with
Taste. The song was released on their second Album "On the Boards".
Several live-recordings, so on "Live at the Isle of Wight" or on the
bootleg "the Irish werewolf" document Rorys liking of this energetic
and, due to his sudden changes of metrum and dynamic, surprising track.
I transcribed the Main riff, which is also underlaying the verses and
the bridge part.
Rory probably used the neck-pickup of his old Stratocaster and sure
a lot of distortion to play this song. The solo he played with a highly
rated compressor. The clean sound of the bridge part you should control
with your guitar-volume combined with a slight stroke.
***************************************************************
This TAB transcription was created using TAB MASTER version 1.0
***************************************************************


The Main Riff:

    +   +   +     +
e:-------------------------|
B:-------------------------|
G:-------------------------|
D:-------------------------|
A:-------------0--0h2p0----|
E:----------------------3--|



    +       +        +       +           +       +        +       +
e:------------------------------------|------------------------------------|
B:------------------------------------|------------------------------------|
G:------------------------------------|------------------------------------|
D:--2-------4h5p4----2----------------|--2-------4h5p4----2----------------|
A:--0----0--------5--0----0--0h2p0----|--0----0--------5--0----0--0h2p0----|
E:---------------------------------3--|---------------------------------3--|


The verse:


    +       +        +       +           +       +        +       +
e:------------------------------------|------------------------------------|
B:------------------------------------|------------------------------------|
G:------------------------------------|------------------------------------|
D:--2-------4h5p4----2----------------|--2-------4h5p4----2----------------|
A:--0----0--------5--0----0--0h2p0----|--0----0--------5--0----0--0h2p0----|
E:---------------------------------3--|---------------------------------3--|


    +       +        +       +           +       +        +       +
e:------------------------------------|------------------------------------|
B:------------------------------------|------------------------------------|
G:------------------------------------|------------------------------------|
D:--2-------4h5p4----2----------------|--2-------4h5p4----2----------------|
A:--0----0--------5--0----0--0h2p0----|--0----0--------5--0----0--0h2p0----|
E:---------------------------------3--|---------------------------------3--|


    +       +        +       +           +       +        +       +
e:------------------------------------|------------------------------------|
B:------------------------------------|------------------------------------|
G:------------------------------------|------------------------------------|
D:--2-------4h5p4----2----------------|--2-------4h5p4----2----------------|
A:--0----0--------5--0----0--0h2p0----|--0----0--------5--0----0--0h2p0----|
E:---------------------------------3--|---------------------------------3--|


    +          +          +           +
e:---------------------------------------------|
B:---------------------------------------------|
G:---------------------------------------------|
D:-------------4h5p4------------------4h5p4----|
A:--2h3p2------------5----2h3p2-------------5--|
E:--------3----------------------3-------------|


the bridge (after 2nd verse):

    A chord diagramBsusBsus
    +    +    +    +
e:--------------------|
B:--------------------|
G:--4-----------------|
D:--4-----------------|
A:--2-----------------|
E:--------------------|


    A chord diagramBB         A chord diagramBsusBsus               A chord diagramBB          A chord diagramBsusBsus
    (sweep gently...)
e:----------------------------|-----------------------------|
B:--------4-------------------|--------4--------------------|
G:------4---------4--------4--|------4----------4--------4--|
D:----4---------4--------4----|----4----------4--------4----|
A:--2---------2--------2------|--2----------2--------2------|
E:----------------------------|-----------------------------|


    A chord diagramBsusBsus                        A chord diagramBsusBsus

e:---------------------------|------------------------------|
B:---------------------------|------------------------------|
G:------4--------4--------4--|------4------4------4---------|
D:----4--------4--------4----|----4------4------4-----------|
A:--2--------2--------2------|--2------2------2-------------|
E:---------------------------|------------------------------|


    A chord diagramD MajorD         A chord diagramA augmentedA         A chord diagramE MajorE                           A chord diagramBB

e:--------2--------------------------------------|------------|
B:------3-----------2-----------0----------------|--4---------|
G:----2-----------2-----------1------------------|--4---------|
D:--0-----------2-----------2--------------------|--4---------|
A:------------0-----------2----------------------|--2---------|
E:----------------------0------------------------|------------|



*******************************************************************
*                                                                 *
* tabbed 1/96 by                                                  *
*                                                                 *
*           DIRK HOFFMANN                                         *
*                                                                 *
* dirkhoffmann@student.uni-tuebingen.de                           *
*******************************************************************

Almost there ...

Sign in to get your own page with links to favourite songs and more. You are just one click away...

Login with Facebook Login with Google