Log in

One click and you are in

Login with Facebook Login with Google

Why sign up and log in

Guitar Tabs Explorer
Tanukichan bass tabs for Hunned bandz

Bass tabs

Tuning: Standard (E A D G)

🎸 Intro:

G|---------------------------------------------------------------------------|
D|---------------------------------------------------------------------------|
A|---------------------------------------------------------------------------|
E|-10-10-10-10-10-10-10-10-7-7-7-7-3-3-3-3-----------------------------------|
G|---------------------------------------------------------------------------|
D|---------------------------------------------------------------------------|
A|---------------------------------------------------------------------------|
E|-10-10-12-12-14-14-10-10-7-7-7-7-3-3-3-3---x2:-----------------------------|

G|---------------------------------------------------------------------------|
D|---------------------------------------------------------------------------|
A|----------12-10-10-10------------------------------------------------------|
E|-12-12-10------------------------------------------------------------------|


🎸 Verse 1:

'Take another just for fun...'

G|---------------------------------------------------------------------------|
D|---------------------------------------------------------------------------|
A|--------------------------12-10-10-10--------------------------------------|
E|-6-6-6-6-7-7-7-7-12-12-10--------------------------------------------------|

G|---------------------------------------------------------------------------|
D|---------------------------------------------------------------------------|
A|--------------------------12-10-10-10----------12-10-10--------------------|
E|-6-6-6-6-7-7-7-7-12-12-10-------------12-12-10-----------------------------|

🎸 Chorus:

G|---------------------------------------------------------------------------|
D|---------------------------------------------------------------------------|
A|----------14-14-14-12-12-12-10-10-10-----x4:-------------------------------|
E|-10-10-10------------------------------------------------------------------|

Post-🎸 Chorus:

G|---------------------------------------------------------------------------|
D|---------------------------------------------------------------------------|
A|-------------------------14-14-14-14-10-10-10-10---------------------------|
E|-10-10-10-10-10-10-10-10---------------------------------------------------|

🎸 Bridge:

'I thought I was left alone..' 'I believe that I can fly..' 'I believe I believe..'

G|---------------------------------------------------------------------------|
D|---------------------------------------------------------------------------|
A|---------------------------------------------------------------------------|
E|-0-0-0-0-3-3-3-3-6-6-6-6-7-7-7-7---x3:-------------------------------------|

'Am I too high '

G|---------------------------------------------------------------------------|
D|---------------------------------------------------------------------------|
A|---------12-10-10-10----x2:------------------------------------------------|
E|-12-12-10------------------------------------------------------------------|


🎸 Chorus:

G|---------------------------------------------------------------------------|
D|---------------------------------------------------------------------------|
A|---------14-14-14-12-12-12-10-10-10--2x:-----------------------------------|
E|-10-10-10------------------------------------------------------------------|

Post-🎸 Chorus:

G|---------------------------------------------------------------------------|
D|---------------------------------------------------------------------------|
A|---------------------------------------------------------------------------|
E|-10-10-10-10-10-10-10-10-10-10-10-10-10-10-10-10---------------------------|

’Am I too high ’

G|---------------------------------------------------------------------------|
D|---------------------------------------------------------------------------|
A|----------12-10-10-10---x2:------------------------------------------------|
E|-12-12-10------------------------------------------------------------------|

🎸 Chorus:

G|---------------------------------------------------------------------------|
D|---------------------------------------------------------------------------|
A|----------14-14-14-12-12-12-10-10-10-----x4:-------------------------------|
E|-10-10-10------------------------------------------------------------------|

Almost there ...

Sign in to get your own page with links to favourite songs and more. You are just one click away...

Login with Facebook Login with Google