Log in

One click and you are in

Login with Facebook Login with Google

Why sign up and log in

Guitar Tabs Explorer
Tantric tabs for Foresight

Guitar tabs

TANTRIC
Unreleased-Foresight


Half Step Down
D-A-D-G-B-D
Intro/Verse
D----------------------------------------
B----------------------------------------
G----------------------------------------
D------(5)-5/----------------------------
A--5-5--------0-3p0-5--------------------
D----------------------------------------


Intro Fill
D----------------------------------------
B----------------------------------------
G----------------------------------------
D----------------------------------------
A--3\5-5-5-5\8-8-8-8\10-10---------------
D----------------------------------------


Pre-Chorus
D----------------------------------------
B----------------------------------------
G------7-----5------------------5----7-7-
D----7-----5-------3-----5----5---5--7-7-
A--5-----3-------3-----5----3--------5-5-
D----------------3-----5-----------------


Chorus
D----------------------------------------
B----------------------------------------
G-------7---10---------------------------
D-------7---10---------------------------x3
A-------5---8----------------------------
D--0-0----------8-8-8-8-7-7--------------
=09=09pm.........

Chorus Fill
D----------------------------------------
B----------------------------------------
G--5-5-5----3-3-3------------------------
D--5-5-5-3--3-3-3-1--0-1-3-1-0-----------
A--3-3-3-3--1-1-1-1--0-1-3-1-0-----------
D--------3--------1--0-1-3-1-0-----------

Almost there ...

Sign in to get your own page with links to favourite songs and more. You are just one click away...

Login with Facebook Login with Google