Log in

One click and you are in

Login with Facebook Login with Google

Why sign up and log in

Guitar Tabs Explorer
Tantric tabs for Astounded

Guitar tabs

TANTRIC
Track 07-Astounded

Originally by: Rob "Fetus" Torrey <fetusinchains@aol.com>

I've just added the middle solo part (2m:37s -> 3m:13s).

Steve Maughan <saxm@dingnet.org.uk>

Half Step Down
D-A-D-G-B-E
Intro/Verse
E------------------------------------------------------------
B----------------------------------------------------------3-
G--------0-0--------0-0------------------------------2p0-----
D--0h2--------0h2--------0h2----------00-------00--------0---
A------0----------0----------0------3--------0---------------
D-------------------------------0h3------3h5-----------------


Pre-Chorus
E--0--0--0-------------------------
B--0--0--0-------------------------
G--2--0--0-------------------------
D--2--0--0-------------------------x4
A--0--3--5-------------------------
D--0--3--5-------------------------


Chorus
E----------------------------------
B----------------------------------
G--9--7--5--7----------------------
D--7--5--3--5----------------------x4
A--7--5--3--5----------------------
D--7--5--3--5----------------------

Bridge=3DChorus

E------------------------
B------------------------
G--7h8p7p5-7--7h8p7p5-7--
D------------------------x4
A------------------------
D------------------------

E------------------------
B------------------------
G--7h8p7p5-7--7h8p7p57---
D---------------------77-
A------------------------
D------------------------

E-----12------------------------------------------------------
B--13----13-12------------------------------------------------
G--------------12---------------------------------------------
D-----------------12-10---------------10----------12----------
A----------------------------12-10-12-------12-10-------------
D-------------------------------------------------------------
                                                  ^^^^^^^
						  bend up/down
						  a few times


E--3-3---5-5---8-8---10-10---12---12--------------------------
B--3-3---5-5---8-8---10-10---12---12--------------------------
G-------------------------------------------------------------
D-------------------------------------------------------------
A-------------------------------------------------------------
D-------------------------------------------------------------

Now for the electric part....

E--------------
B--------------
G--------12----
D--12-14-------x7
A--------------
D--------------

E-----------------------
B-----------------------
G--------12-14-12-------
D--12-14----------12----
A-----------------------
D-----------------------

E-----------------------
B-----------------------
G--12(14)-(14)-(14)-----
D-----------------------x4
A-----------------------
D-----------------------

E-------------------------------------------------------------
B-------------------------------------------------------------
G--16-14-----17-14-----16-14-----17-14-----16-14--------------
D--------14--------14--------14--------14--------14-----------
A-------------------------------------------------------------
D-------------------------------------------------------------

E-------------------------------------------------------------
B--17-13-----17-13-----17-13-----17-13-----17-13--------------
G--------14--------14--------14--------14--------14-----------
D-------------------------------------------------------------
A-------------------------------------------------------------
D-------------------------------------------------------------

E--15---------------------------------------------------------
B-----17h20p17p15--13s10--------------------------------------
G-------------------------------------------------------------
D-------------------------------------------------------------
A-------------------------------------------------------------
D-------------------------------------------------------------

E----------
B----------
G----------
D----------
A------3---  can't quite hear what is here, just play around
D--0s7-----    ont these two strings for a couple of beats

End Chorus
E----------------------------------  ----------------
B----------------------------------  ----------------
G--9--7--5--7----------------------  ---5--7--5--7---
D--7--5--3--5----------------------x8---3--5--3--5---
A--7--5--3--5----------------------  ---3--5--3--5---
D--7--5--3--5----------------------  ---3--5--3--5---


Intro/Verse x13

Pre-Chorus

Chorus

Verse x6

Pre-Chorus

Chorus

Bridge
End Chorus

Verse x4

Almost there ...

Sign in to get your own page with links to favourite songs and more. You are just one click away...

Login with Facebook Login with Google