Log in

One click and you are in

Login with Facebook Login with Google

Why sign up and log in

Guitar Tabs Explorer
Tankard tabs for Zombie attack

Tabs

|-----------------------------------------------------------------------------------------------|
|-----------------------------------------------------------------------------------------------|
|-----------------------------------------------------------------------------------------------|
|-----------------------------------------------------------------------------------------------|
|--2------------5--------------7--------------8---5-7-8-7-5-------------------------------------|
|--0-0000000000-3-0-0000000000-5-0-0000000000-6---3-5-6-5-3-------------------------------------|

 -Riff2 (X4):

|-----------------------------------------------------------------------------------------------|
|-----------------------------------------------------------------------------------------------|
|-----------------------------------------------------------------------------------------------|
|-----------------------------------------------------------------------------------------------|
|-2------------555---------------777---------------888---5-7-8-7-5------------------------------|
|-0-0000000000-333--0-0000000000-555--0-0000000000-666---3-5-6-5-3------------------------------|

 -Riff 3 (X1):
|-----------------------------------------------------------------------------------------------|
|-----------------------------------------------------------------------------------------------|
|-----------------------------------------------------------------------------------------------|
|-----------------------------------------------------------------------------------------------|
|-5-----------7-5-7---7--------8-7-8---5--------7-5-7----5-----------7-5-7----8-8-8-7-5-7-8-8-8-|
|-3-33333333--5-3-5---5-555555-6-5-6---3-333333-5-3-5----3-33333333--5-3-5----6-6-6-5-3-5-6-6-6-|

-Riff 4 (X4):

|-----------------------------------------------------------------------------------------------|
|-----------------------------------------------------------------------------------------------|
|-----------------------------------------------------------------------------------------------|
|-----------------------------------------------------------------------------------------------|
|--------------------------------------------33-------------------------------------------------|
|-3-33333333-0-00000000--3-5-6-66666666--55-----------------------------------------------------|

 -Riff 5 (X1)

|-----------------------------------------------------------------------------------------------|
|-----------------------------------------------------------------------------------------------|
|-----------------------------------------------------------------------------------------------|
|--5----5---------------------------------------------------------------------------------------|
|--3----3--5----5--7----5-7-8-7-5---------------------------------------------------------------|
|----------3----3--5----3-5-6-5-3---------------------------------------------------------------|

base do solo: Riff 1A (x2):
|-----------------------------------------------------------------------------------------------|
|-----------------------------------------------------------------------------------------------|
|-----------------------------------------------------------------------------------------------|
|-----------------------------------------------------------------------------------------------|
|---------------------------------------33------------------------------------------------------|
|-3-33333333-0-00000000-3-5-6-66666666----------------------------------------------------------|


Riff 2A (x1)

|-----------------------------------------------------------------------------------------------|
|-----------------------------------------------------------------------------------------------|
|-----------------------------------------------------------------------------------------------|
|---------------------------------------33------------------------------------------------------|
|-3-33333333-0-00000000-3-5-6-66666666----------------------------------------------------------|
|-----------------------------------------------------------------------------------------------|

 Riff 1A (x1) Riff 2A (x1) Riff3A (x1):
|-----------------------------------------------------------------------------------------------|
|-----------------------------------------------------------------------------------------------|
|-----------------------------------------------------------------------------------------------|
|-----------------------------------------------------------------------------------------------|
|-3-33333333---1-11111111-0---------------------------------------------------------------------|
|-----------------------------------------------------------------------------------------------|

 Riff 1A (x1) Riff 5 etc...
ⓘ Guitar tab for 'Zombie Attack' by Tankard, a thrash metal band formed in 1982 from Frankfurt, Germany

Almost there ...

Sign in to get your own page with links to favourite songs and more. You are just one click away...

Login with Facebook Login with Google