Log in

One click and you are in

Login with Facebook Login with Google

Why sign up and log in

Guitar Tabs Explorer
Tame Impala bass tabs for Why wont you make up your mind

Why Won't You Make Up Your Mind bass tab - Tame Impala

Tame Impala bass tabs for Why wont you make up your mind

Bass tabs

Tame Impala - Why Won't You Make Up Your Mind?
InnerSpeaker


Tuning:EADG

Bass kicks in at 0:31

G|----------------------------------------------------------------------|
D|--10\7-7---7-7-8-8---8-8--8-8---8---8---------------------------------|
A|---------------------------------------7---7-7-8-8---8-8--8-8---8---8-|
E|----------------------------------------------------------------------|

G|-----------------------------------------------------------------|
D|-7---7-7-8-8---8-8--8-8---8---8----------------------------------|
A|---------------------------------7---7-7-8-8---8-8--8-8---8---8--|
E|-----------------------------------------------------------------|

Variations:

G|-------------------------------------------------------------------|
D|-7---7-7-8-8---8-8--8-8---8---8------------------------------------|
A|---------------------------------7---7-7-8-8---8-8--8-8---8---8-10-|
E|-------------------------------------------------------------------|


1:46 - 2:00
and again at 2:11-2:30

G|--------------------------------------------------------------------|
D|--------------------------------------------------------------------|
A|-0---0-0-1-1---1-1--1-1---1---1-------------------------------------|

Almost there ...

Sign in to get your own page with links to favourite songs and more. You are just one click away...

Login with Facebook Login with Google