Log in

One click and you are in

Login with Facebook Login with Google

Why sign up and log in

Guitar Tabs Explorer
Tame Impala tabs for Vital signs

Guitar tabs

Band: Tame Impala

Tabbed by: L.A Rai

E-----------------------------------|
B--6--6/-2-2-2-4-6------------------|
G--6--6/-2-2-2-4-6------------------|
D--6--6/-2-2-2-4-6------------------|
A--4--4/-0-0-0-2-4------------------|
E-----------------------------------|

E-----------------------------------------------------|
B-----------------------------------------------------|
G-----------------------------------------------------|
D-----------------------------------------------------|
A-----4-4-4-4-----4-4-4-4-----4-4-4-4-----4-4-5-4-----|
E-4-7---------4-7---------4-7---------4-7-------------|

E-2--5--4--2--------------------------------------------|
B-2--5--5--4--------------------------------------------|
G-2--6--6--4--------------------------------------------|
D-4--7--6--4--------------------------------------------|
A-4--7--4--2--------------------------------------------|
E-2--5--------------------------------------------------|

E---------------------------------------------------------------------------|
B---------------------------------------------------------------------------|
G---------------------------------------------------------------------------|
D---------------------------------------------------------------------------|
A----4-4-4-4----4-4-4-4--4-6--------4-6-------------------------------------|
E-4-7--------4-7------------4-4-4-4-----4-4-4-4--2-4-5-5-5-5--2-4-5-5-5-5---|

E-------6------------|
B-4--6--7--6---------|
G-4--6--8--6---------|
D-4--6--8--6---------|
A-2--4--6--4---------|
E--------------------|

Synth/Guitar solo:

E-/14-11-13-14-11-14-13-----/14-11-13-14-11-14-13---------------------------|
B----------------------14-12---------------------14-12-14-11----------------|
G------------------------------------------------------------11-8--10/11/10-|
D---------------------------------------------------------------------------|
A---------------------------------------------------------------------------|
E---------------------------------------------------------------------------|

E--------11-----|
B------9--------|
G-11-9----------|
D---------------|
A---------------|
E---------------|

E-/14-11-13-14-11-14/16/14-13/14/13-11/13/11-------------------------------|
B--------------------------------------------11----------------------------|
G--------------------------------------------------------------------------|
D--------------------------------------------------------------------------|
A--------------------------------------------------------------------------|
E--------------------------------------------------------------------------|

Comments, feedback etc., is very welcome :)

Almost there ...

Sign in to get your own page with links to favourite songs and more. You are just one click away...

Login with Facebook Login with Google