Log in

One click and you are in

Login with Facebook Login with Google

Why sign up and log in

Guitar Tabs Explorer
Tame Impala bass tabs for Tomorrows dust

Bass tabs

Tuning: Standard (E A D G)

TAME IMPALA "TOMORROW'S DUST" - BASS TAB
Tuning: Standard EADG


Intro:

G|------------------------------------------------------------------------------------|
D|--8-7---8-7---8-7---8-7---8-7----8----10-9----10-9----10-9----10-9----10-9----10----|
A|------------------------------------------------------------------------------------| x 2
E|------------------------------------------------------------------------------------|



Verse 1: (1:01)

There's no use trying to relate...
G|------------------------------------------------------------------------------------|
D|--8-7---8-7---8-7---8-7---8-7----8----10--9---10-9----10-9----10-9----10-9----10----|
A|------------------------------------------------------------------------------------| x 2
E|------------------------------------------------------------------------------------|

G|------------------------------------------------------------------------------------|
D|--8--7-8---7-8---7-8---7-8---7-8----10----9-10---9-10---9-10---9-10---9-10----------|
A|------------------------------------------------------------------------------------| x 2
E|--6----------------------------------8----------------------------------------------|

There's no use flying to the moon...
G|------------------------------------------------------------------------------------|
D|--8--7-8-8----7-8-8----7-8-8----7-8-10----9-10-10----9-10--10----9-10-10----9-10----|
A|------------------------------------------------------------------------------------| x 2
E|--6------6--------6--------6---------8----------8-----------8----------8------------|


Refrain 1: (1:40)

I was blinded by a memory...
G|------------------------------------------------------------------------------------|
D|------------------------------------------------------------------------------------|
A|------------------------------------------------------7-----------------------------|
E|--6--6-6----6-6----6-6----7-8-----8-8---8-8---8-8---8-------------------------------|

G|------------------------------------------------------------------------------------|
D|------------------------------------------------------------------------------------|
A|------------------------------------------------------------------------------------|
E|--6--6-6----6-6----6-6----7-8-----8-8---8-8---8-8---8-8-----------------------------|


Chorus 1: (1:59)

...do you want when I say I won't?
G|----------------------------------------------------------------------------------------|
D|--8-7----8-8--7-----8-8--7-----8-8--7-----8-----3-2----3-3--2----3-3--2----3-3--2----3--|
A|----------------------------------------------------------------------------------------|
E|--6-5----6-6--5-----6-6--5-----6-6--5-----6-----1-0----1-1--0----1-1--0----1-1--0----1--|

(2:09)
...I do the same, as though I must
G|----------------------------------------------------------------------------------------|
D|--------------------------------------------------------------8-7-----------------------|
A|---------------------------------8-8-----8-8-8----8-8----8-8----------------------------|
E|--3---3-3-3----3-6----6-6-6----6--------------------------------------------------------|

G|----------------------------------------------------------------------------------------|
D|----------------------------------------------------------------------------------------|
A|----------------------------------------------------------------------------------------|
E|--6---6-6-6----6-6----6-6~----6-7-8----8-8-8----8-8----8-8-8----8-----------------------|


Bridge: (2:27)

(same bass line as intro)
G|---------------------------------------------------------------------------------------|
D|--8-7----8-7----8-7----8-7----8-7----8----10-9----10-9----10-9----10-9----10-9----10---|
A|---------------------------------------------------------------------------------------| x 2
E|---------------------------------------------------------------------------------------|


Verse 2: (2:46)

There's no use trying to relate...
G|---------------------------------------------------------------------------------------|
D|--8---7-8-8----7-8-8----7-8-8----7-8----10----9-10-10----9-10-10----9-10-10----9-10----|
A|---------------------------------------------------------------------------------------| x 2
E|--6-------6--------6--------6------------8----------8----------8----------8------------|



Refrain 2: (3:05)

I was blinded by a memory...
G|---------------------------------------------------------------------------|
D|---------------------------------------------------------------------------|
A|--------------------------------------------------7------------------------|
E|--6--6-6---6-6---6-6---7-8----8-8---8-8---8-8---8--------------------------|

G|---------------------------------------------------------------------------|
D|---------------------------------------------------------------------------|
A|---------------------------------------------------------------------------|
E|--6--6-6---6-6---6-6---7-8----8-8---8-8---8-8---8-8------------------------|


Bridge: (3:25)
                   ...Sympathy for the fauna
G|---------------------------------------------------------------------------|
D|---------------------------------------------------------------------------|
A|---------------------------------------------------------------------------| x2
E|--6---6-6---6-6---6-6-----6-8-----8-8---8-8---8-8---1----------------------|

G|---------------------------------------------------------------------------|
D|---------------------------------------------------------------------------|
A|---------------------------------------------------------------------------|
E|--6---6-6---6-6---6-6-----6-8-----8-8---8-8---6-1----1-1---1-1---1-1-------|


Chorus 2: (3:55)

And though I try...
G|---------------------------------------------------------------------------|
D|-----------------------------------------------------------8-7-------------|
A|---------------------------------8-----8-8-8----8-8----8-8-----------------|
E|--3---3-3-3----3-6----6-6-6----6-------------------------------------------|

G|---------------------------------------------------------------------------|
D|---------------------------------------------------------------------------|
A|---------------------------------------------------------------------------|
E|--6---6-6-6----6-x-6-x----6-6~----6-7-8----8-8-8----8-x----8~--------------|


Instrumental Outro: (4:13)

G|---------------------------------------------------------------------------|
D|---------------------------------------------------------------------------|
A|---------------------------------------------------------------------------| x2
E|--6---6-6---6-6---6-6-----6-8-----8-8---8-8---8-8---1----------------------|

G|---------------------------------------------------------------------------|
D|---8--7------8--8---7-----8--8----7----8--8---7-----8----------------------|
A|---------------------------------------------------------------------------|
E|---6--5------6--6---5-----6--6----5----6--6---5-----6----------------------|

G|---------------------------------------------------------------------------|
D|--10--9-----10-10---9----10-10----9----10-10--9----10----------------------|
A|---------------------------------------------------------------------------|
E|---8--7------8--8---7-----8--8----7-----8--8--7-----8----------------------|


************************************

| ~ Vibrato
| x Dead note

************************************

Almost there ...

Sign in to get your own page with links to favourite songs and more. You are just one click away...

Login with Facebook Login with Google