Log in

One click and you are in

Login with Facebook Login with Google

Why sign up and log in

Guitar Tabs Explorer
Tame Impala bass tabs for The less i know the better

The Less I Know The Better bass tab - Tame Impala

Tame Impala bass tabs for The less i know the better

Bass tabs

Tame Impala: The Less I Know The Better

Bass Tab
Intro

G|-6/8-6------------6/8--6-----6/8--6/8-6-----------9/11--9-----6/8--6/8-6------|
D|-------9-6------------------------------9--------------------------------9-6--|
A|-----------4--44----------4-----------------7--77----------7------------------|
E| ---- ------------------------------------------------------------------------|

G|--------6/8--6-----6/8--6/8-6-----------9/11--9-----6/8--6/8-6------|
D|------------------------------9--------------------------------9-6--|
A|-4--44----------4-----------------7--77----------7------------------|
E| ---- --------------------------------------------------------------|

G|--------6/8--6-----6/8--6/8-6-----------9/11--9---------|
D|------------------------------9-------------------------|
A|-4--44----------4-----------------7--77-----------------|
E| ---- --------------------------------------------------|


Chorus//Main riff

[0:25]
G|--------6/8--6-----6/8--6/8-6-----------9/11--9-----6/8--6/8-6------|  - X4 -
D|------------------------------9--------------------------------9-6--|
A|-4--44----------4-----------------7--77----------7------------------|
E| ---- --------------------------------------------------------------|


G|--------6/8--6-----6/8--6/8-6-----------9/11--9---------|
D|------------------------------9-------------------------|
A|-4--44----------4-----------------7--77-----------------|
E| ---- --------------------------------------------------|


Verse

[1:05]
G|---------------------------6--------------------9--6----|
D|-------------------------6------------------------------|
A|-14/-7--7--7-7---7--7--4-----4-5--5--5-5--5-5-5---------|
E| ------- ------7----------------------------------------|

G|---------9/11------------6-----------7--------------------|
D|-------------------9------------------7-------------------|
A|---7--7--------7-7----444---4-5--5-5---5--555-5--/9-9-9-9-|
E| 7-------- -----------------------------------------------|

G|-----------------------6--------------------9--6----|
D|---------------------6------------------------------|
A|-7--7--7-7---7--7--4-----4-5--5--5-5--5-5-5---------|
E| --- ------7----------------------------------------|

G|---------9/11------------6-----------7---------------------|
D|-------------------9------------------7--------------------|
A|---7--7--------7-7----444---4-5--5-5---5--555-5--5/9-------|
E| 7-------- ------------------------------------------------|


Chorus

[1:39]
G|--------6/8--6-----6/8--6/8-6-----------9/11--9-----6/8--|
D|------------------------------9--------------------------|
A|-4--44----------4-----------------7--77----------7-------|
E| ---- ---------------------------------------------------|

G|--------6/8--6-----6/8--6/8-6-----------9/11--9-----6/8--6/8-6------|  - X4 -
D|------------------------------9--------------------------------9-6--|
A|-4--44----------4-----------------7--77----------7------------------|
E| ---- --------------------------------------------------------------|


Verse//Outro

[2:20]
G|------------------------6--------------------9--6----|
D|----------------------6------------------------------|
A|--7--7--7-7---7--7--4-----4-5--5--5-5--5-5-5---------|
E|----- ------7----------------------------------------|

G|---------9/11------------6-----------7-----------6/8-6------|
D|-------------------9------------------7----------------9-6--|
A|---7--7--------7-7----444---4-5--5-5---5--555-5-------------|
E| 7-------- -------------------------------------------------|

G|-----------9/11-------------------6----------------|
D|-----------------------6-9------6-----------7-7----|
A|-7--7----7-------777-9-----4--4-----4-----7--------|
E| ------7- ----------------------------5------------|

G|-----------9/11-9-------------------------------------|
D|-------------------------6-9--------------------------|
A|-7--7----7---------7-7-9-----4--4-4-4-4----7-7-7-7----|
E| ------7- -----------------------------------------5--|

G|-----------9/11-------------------6----------------|
D|-----------------------6-9------6-----------7-7----|
A|-7--7----7-------777-9-----4--4-----4-----7--------|
E| ------7- ----------------------------5------------|

G|-----------9/11-9----------------------------| - X4 -
D|-------------------------6-9-----------------|
A|-7--7----7---------7-7-9-----4--4-4-4--------|
E| ------7- -----------------------------------|

Almost there ...

Sign in to get your own page with links to favourite songs and more. You are just one click away...

Login with Facebook Login with Google