Log in

One click and you are in

Login with Facebook Login with Google

Why sign up and log in

Guitar Tabs Explorer
Tame Impala bass tabs for One more hour

Bass tabs

Tuning: Standard (E A D G)


INTRO 0:09
G|---------------------------------|
D|-----------------------14~-------|
A|-----------------12/14-----------|
E|--12~----------------------------|(X2)
VERSE 0:49
G|---------------------------------|
D|---------------------------------|
A|--12----11----9----11------------|
E|---------------------------------|(X3)

G|---------------------------------------|
D|---------------------------------------|
A|--12--11--9--11---------11--11--11-11--|
E|-------------------9/11----------------|

G|---------------------------------|
D|---------------------------------|
A|--12----11----9----11------------|
E|---------------------------------|(X4)

G|---------------------------------|
D|---------------------------------|
A|--12----11---------11--------11--|
E|--------------12----------12-----|


CHORUS 2:02
G|---------------------------------|
D|---------------------------------|
A|-19---------------19----19-------|
E|----19-17---15-17----17----------|

G|---------------------------------------------------------------|
D|---------------------------------------------------------------|
A|-19------------------19--19/21--18-------11-13-15-18-----------|
E|---19-17--17-16-17-19--------------16--12----------------------|

G|---------------------------------------------------------------|
D|---------------------------------------------------------------|
A|-14/16------14/16----------------14----12-11-14-11-------------|
E|------17---------17--19-16-14-11-------------------------------|

G|---------------------------------------------------------------|
D|---------------------------------------------------------------|
A|-14/16-------11-12-14--14/16-----------------13/16p14----------|
E|------17--------------------17--/19-16-14-11-------------------|

BRIDGE 3:27
G|---------------------------------|
D|---------------------------------|
A|--12----11----9----11------------|
E|---------------------------------|(X3)

G|---------------------------------------|
D|---------------------------------------|
A|--12--11--9--11---------11--11--11-11--|
E|-------------------9/11----------------|

G|---------------------------------|
D|---------------------------------|
A|--12----11----9----11------------|
E|---------------------------------|(X7)

G|---------------------------------------|
D|---------------------------------------|
A|--12--11--9--11---------11--11--11-11--|
E|-------------------9/11----------------|

G|---------------------------------|
D|---------------------------------|
A|--12----11----9----11------------|
E|---------------------------------|(X4)

G|---------------------------------|
D|---------------------------------|
A|--12----11---------11------------|
E|--------------12-----------------|


OUTRO 4:49
G|---------------------------------------------------------------|
D|---------------------------------------------------------------|
A|---------------------------------------------------------------|
E|-0-5-5-5-5-5-5-5-5-5-5-5-5-5-0-5-5-5-5-5-5-5-5/7-7-7-7-7-7/----|

G|-----------------------------------------|
G|------------------------------------------|
A|------------------------------------------|
E|-11-11-11-11-11-11-11-11-11-0-11-0-11-0-0-|(REPEAT UNTIL END)


************************************

| ~ Vibrato
| / Slide up
| p Pull-off

************************************

Almost there ...

Sign in to get your own page with links to favourite songs and more. You are just one click away...

Login with Facebook Login with Google