Log in

One click and you are in

Login with Facebook Login with Google

Why sign up and log in

Guitar Tabs Explorer
Tame Impala bass tabs for Nothing that has happened so far has been anything we could control

Nothing That Has Happened So Far Has Been Anything We Could Control bass tab - Tame Impala

Tame Impala bass tabs for Nothing that has happened so far has been anything we could control

Bass tabs

Tuning: D

You can slide between the notes 'till the jam


INTRO:
F|---------------15~------|
C|----------15~-----------|
G|13~--13~----------------|
D|------------------------|
VERSE:
F|---------------------------------|
C|---------------------------------|
G|13------10-------------10--------| x4
D|----11------8--13--11------8-----|

VOICES:
F|---------------------------------|
C|---------------------------------|
G|13------10-------------10--------| x2
D|----11------8--13--11------8-----|


CHORUS:
F|---------------------------------|
C|---------------------------------|
G|13------10-------------10--------| x2
D|----11------8--13--11------8-----|

F|----------------------------------------------------------------|
C|----------------------------------------------------------------|
G|13------10------------------------------10-------------10-------|
D|----11------8--13--11--9--8--6/--11-13------8--13--11------8----|

F|---------------------------------|
C|---------------------------------|
G|13------10-------------10--------| x2
D|----11------8--13--11------8-----|

F|----------------------------------------------------------------|
C|----------------------------------------------------------------|
G|13------10------------------------------10-------------10-------|
D|----11------8--13--11--9--8--6/--13-13------8--13--11------8----|

JAM:
F|-------------------------------------------------11\------------|
C|----------------------------------------------8/-----\8/--------|
G|7--7/9-9-9-----9--10~-10/-------7--7/9-9-9---------------10~----|
D|----------------------------------------------------------------|

F|------------1111-------11-------------12~-----------------------|
C|--------------------8/----\8/-------12--------------------------|
G|7--7/9-9-9--------------------10~-------------------------------|
D|----------------------------------------------------------------|

F|------------1111-------11----------------------------------1111---91211-----(it's 12,11,9)------12/16--|
C|---------------------8/--\8/-------------------------------------------12119----------------5/12-------|
G|7--7/9-9-9-------------------10~--9h10p9\-7h9---7-7/9-9-9-------------------12119-10~------------------|
D|-------------------------------------------------------------------------------------------------------|

F|-------------9h11-------------9h11------------1111---91211-------------------------------1212------12/1616|
C|----------------------------------------------------------12119--------------10h12-10h12------5/12--------|
G|7-7\5/9-9-9-------7h9-7h9-10~-------7-7/9-9-9------------------12119--10-10-------------------------------|
D|----------------------------------------------------------------------------------------------------------|

F|------------1111---------------------------------------1111---------------------12\-------12/16---|
C|---------------------------------------------------------------------------10h12------5/12--------|
G|7-7\5/9-9-9-------7h9-7h9-10-10-9h10p9\-7h9--7-7/9-9-9-------7h9-7h9-10-10------------------------|
D|--------------------------------------------------------------------------------------------------|

F|----------1111--91211-----------------------------------9h11-91211--------------12--------11-12\------|
C|---------------------12119----------------------------------------12119-------------------------------|
G|7-7/9-9-9-----------------12119-10-10-10----7-7\5/9-9-9----------------12119-10-----10/12-------------|
D|------------------------------------------------------------------------------------------------------|

F|-----------1414---------12-----------16~-----------------------------------|
C|--------------------------------12/16--------------------------------------|
G|7-7/9-9-9--------999-10----1010-----------7-7/9-9-9------------------------|
D|---------------------------------------------------------------------------|


OUTRO:
F|---------------------------------|
C|---------------------------------|
G|13------10-------------10--------| x4
D|----11------8--13--11------8-----|

| / slide up
| \ slide down
| h hammer-on
| p pull-off
| ~ vibrato
| + harmonic
| x Mute note

Almost there ...

Sign in to get your own page with links to favourite songs and more. You are just one click away...

Login with Facebook Login with Google