Log in

One click and you are in

Login with Facebook Login with Google

Why sign up and log in

Guitar Tabs Explorer
Tame Impala tabs for Lucidity

Guitar tabs

by TAME IMPALA
from their LP
INNERSPEAKER


VERSE:
|--7--7-7-7-7--7-7-7-7--7-7-7-7---7--7-7-7-7--7-7-7--7--7--7-7--|
|--7--7-7-7-7--7-7-7-7--7-7-7-7---9--9-9-9-9--9-9-9--9--9--9-9--|
|--7--7-7-7-7--7-7-7-7--7-7-7-7---9--9-9-9-9--9-9-9--9--9--9-9--| x4
|--7--7-7-7-7--7-7-7-7--7-7-7-7---9--9-9-9-9--9-9-9--9--9--9-9--|
|--7--7-7-7-7--7-7-7-7--7-7-7-7---7--7-7-7-7--7-7-7--7--7--7-7--|
|--0--0-0-0-0--0-0-0-0--0-0-0-0---0--0-0-0-0--0-0-0--0--0--0-0--|
RIFF:
|----------------------------------------------|
|----------------------------------------------|
|---7-7-6-4-6-----4-----------4-------4--------|
|-------------7-7---6-7--6h7----2--2-----2--2--|
|----------------------------------------------|
|----------------------------------------------|


VERSE:
|--7--7-7-7-7--7-7-7-7--7-7-7-7---7--7-7-7-7--7-7-7--7--7--7-7--|
|--7--7-7-7-7--7-7-7-7--7-7-7-7---9--9-9-9-9--9-9-9--9--9--9-9--|
|--7--7-7-7-7--7-7-7-7--7-7-7-7---9--9-9-9-9--9-9-9--9--9--9-9--| x2
|--7--7-7-7-7--7-7-7-7--7-7-7-7---9--9-9-9-9--9-9-9--9--9--9-9--|
|--7--7-7-7-7--7-7-7-7--7-7-7-7---7--7-7-7-7--7-7-7--7--7--7-7--|
|--0--0-0-0-0--0-0-0-0--0-0-0-0---0--0-0-0-0--0-0-0--0--0--0-0--|


CHORUS:
|------------------------------------|
|------------------------------------|
|--4---4--2--6---------4---4---2--6--|
|--4---4--2--6---------4---4---2--6--|
|--2---2--0--4---------2---2---0--4--|
|------------------------------------|

CONNECTING RIFF:
|--------------------2---|
|-----------------3------|
|----5/9\5----0h2--------|
|------------------------|
|------------------------|
|------------------------|

VERSE:
|--7--7-7-7-7--7-7-7-7--7-7-7-7---7--7-7-7-7--7-7-7--7--7--7-7--|
|--7--7-7-7-7--7-7-7-7--7-7-7-7---9--9-9-9-9--9-9-9--9--9--9-9--|
|--7--7-7-7-7--7-7-7-7--7-7-7-7---9--9-9-9-9--9-9-9--9--9--9-9--| x6
|--7--7-7-7-7--7-7-7-7--7-7-7-7---9--9-9-9-9--9-9-9--9--9--9-9--|
|--7--7-7-7-7--7-7-7-7--7-7-7-7---7--7-7-7-7--7-7-7--7--7--7-7--|
|--0--0-0-0-0--0-0-0-0--0-0-0-0---0--0-0-0-0--0-0-0--0--0--0-0--|


FLOAT AWAY:
|----7h9h7----5-2h4---9-7-5--4h5-2-------------------------------7h9h7-----|
|----------------------------------5--5-5h7h5--3--2-3-----2-3--------------|
|------------------------------------------------------2------2------------|
|--------------------------------------------------------------------------|
|--------------------------------------------------------------------------|
|--------------------------------------------------------------------------|


CHORUS:
|------------------------------------|
|------------------------------------|
|--4---4--2--6---------4---4---2--6--|x2
|--4---4--2--6---------4---4---2--6--|
|--2---2--0--4---------2---2---0--4--|
|------------------------------------|


SMALL LEAD BREAK:
|-5-7-5-2-3-5--7-10h12h10-12-14-15-17-|
|-------------------------------------|
|-------------------------------------|
|-------------------------------------|
|-------------------------------------|
|-------------------------------------|


RIFF:
|----------------------------------------------|
|----------------------------------------------|
|---7-7-6-4-6-----4-----------4-------4--------|
|-------------7-7---6-7--6h7----2--2-----2--2--|x4
|----------------------------------------------|
|----------------------------------------------|


CHORUS:
|------------------------------------|
|------------------------------------|
|--4---4--2--6---------4---4---2--6--|x4
|--4---4--2--6---------4---4---2--6--|
|--2---2--0--4---------2---2---0--4--|
|------------------------------------|


BRIDGE:
|---------------------------------------------------------------2--------|
|------------------------------------------------------------------------|
|------------------------------------------------------------------------|
|-4---5--7--9--4---12--10---8---7--5--7--9--4--12--10--8--7--5--4--------|
|-4---5--7--9--4---12--10---8---7--5--7--9--4--12--10--8--7--5--4--------|
|-2---3--5--7--2---10--8----6---5--3--5--7--2--10--8---6--5--3--2--------|

LONG SOLO:
|----7-------------------5--7--4--5-------------------------------|
|---------------5--------------------5----------------------------|
|-----------------------------------------------------------------|
|-----------------------------------------------------------------|
|-----------------------------------------------------------------|
|-----------------------------------------------------------------|

end on...
|----------|
|----------|
|----------|
|---2------|
|----------|
|----------|


most of it is correct i'm not sure about the chorus though, suggestions would be great xD

Other versions of Lucidity

LucidityChords

Almost there ...

Sign in to get your own page with links to favourite songs and more. You are just one click away...

Login with Facebook Login with Google