Log in

One click and you are in

Login with Facebook Login with Google

Why sign up and log in

Guitar Tabs Explorer
Tame Impala bass tabs for Lost in yesterday

Bass tabs

Intro:

G|--------------6--6-------------6--6--|--------------6--6----------------6/8--|
D|----------6h8------------------------|----------6h8-------------------4------|
A|--6--6-8h9------------------4h6------|--6--6-8h9------------------4-6--------|
D|--------------------4--4-6h7---------|--------------------4--4-6h7-----------|

Verse 1:

G|--------------6--6-------------6--6--|--------------6--6----------------6/8--|
D|----------6h8------------------------|----------6h8-------------------4------|
A|--6--6-8h9------------------4h6------|--6--6-8h9------------------4-6--------|
D|--------------------4--4-6h7---------|--------------------4--4-6h7-----------|

G|--------------6--6-------------6--6--|--------------6--6------------------|
D|----------6h8------------------------|----------6h8-----------------------|
A|--6--6-8h9------------------4h6------|--6--6-8h9-----------------------4--|
D|--------------------4--4-6h7---------|--------------------4--4-4-6-6-7----|

G|--------------6--6-------------6--6--|--------------6--6----------------6/8--|
D|----------6h8------------------------|----------6h8-------------------4------|
A|--6--6-8h9------------------4h6------|--6--6-8h9------------------4-6--------|
D|--------------------4--4-6h7---------|--------------------4--4-6h7-----------|

G|--------------6--6-------------6--6--|--------------6--6--------------|
D|----------6h8------------------------|----------6h8-------------------|
A|--6--6-8h9------------------4h6------|--6--6-8h9----------------------|
D|--------------------4--4-6h7---------|--------------------4--4-4h6h7--|


Prechorus:

G|--------------6--6-------------6--6--|--------------6--6----------------6/8--|
D|----------6h8------------------------|----------6h8-------------------4------|
A|--6--6-8h9------------------4h6------|--6--6-8h9------------------4-6--------|
D|--------------------4--4-6h7---------|--------------------4--4-6h7-----------|

G|--------------6--6-------------6--6--|--------------6--6------------|
D|----------6h8------------------------|----------6h8-----------------|
A|--6--6-8h9------------------2h4------|--6--6-8h9--------------------|
D|--------------------4--4-6h7---------|--------------------4--4-6h7--|


Chorus:


G|--------------6--6-------------6--6--|----------------------------11--------|
D|----------6h8------------------------|----------6--8--8--------------11/13--|
A|--6--6-8h9------------------4h6------|--6--6-8h9----------------4-----------|
D|--------------------4--4-6h7---------|------------------4--4-6h7------------|

G|--------------6--6-------------6--6--|--------------------------------------|
D|----------6h8------------------------|----------6--8--8------------8--8-----|
A|--6--6-8h9------------------4h6------|--6--6-8h9----------------4-----------|
D|--------------------4--4-6h7---------|------------------4--4-6h7------------|

G|--------------6--6-------------6--6--|----------------------------11--------|
D|----------6h8------------------------|----------6--8--8--------------11/13--|
A|--6--6-8h9------------------4h6------|--6--6-8h9----------------4-----------|
D|--------------------4--4-6h7---------|------------------4--4-6h7------------|

G|--------------6--6-------------6--6--|----------------------------11--------|
D|----------6h8------------------------|----------6--8--8--------------11/13--|
A|--6--6-8h9------------------4h6------|--6--6-8h9----------------4-----------|
D|--------------------4--4-6h7---------|------------------4--4-6h7------------|


Synth Part:


Verse 2:

G|--------------6--6-------------6--6--|--------------6--6-------------------|
D|----------6h8------------------------|----------6h8------------------8--8--|
A|--6--6-8h9------------------4h6------|--6--6-8h9---------------------------|
D|--------------------4--4-6h7---------|--------------------4--4-6-7-8-------|

G|--------------6--6-------------6--6--|--------------6--6-------------------|
D|----------6h8------------------------|----------6h8------------------8--8--|
A|--6--6-8h9------------------4h6------|--6--6-8h9---------------------------|
D|--------------------4--4-6h7---------|--------------------4--4-6-7-8-------|

G|--------------6--6-------------6--6--|--------------6--6----------------6/8--|
D|----------6h8------------------------|----------6h8-------------------4------|
A|--6--6-8h9------------------4h6------|--6--6-8h9------------------4-6--------|
D|--------------------4--4-6h7---------|--------------------4--4-6h7-----------|

G|--------------6--6-------------6--6--|--------------6--6------------|
D|----------6h8------------------------|----------6h8-----------------|
A|--6--6-8h9------------------4h6------|--6--6-8h9--------------------|
D|--------------------4--4-6h7---------|--------------------4--4-6h7--|


Bridge:

G|------------------------------------------------------------------------|
D|--------------------------------------------------------------6/8--6/8--|
A|--6-------6-------6-----4-6-------6-------6-8------6--4-----------------|
D|------8-------8-----6-8-------4-------8--------4---------8--8-----------|


Chorus:

G|--------------6--6-------------6--6--|-----------------------------13p11----|
D|----------6h8------------------------|----------6--8--8-----------------13--|
A|--6--6-8h9------------------2h4------|--6--6-8h9----------------2-----------|
D|--------------------2--2-4h5---------|------------------2--2-4h5------------|

G|--------------6--6-------------6--6--|----------------------------11--------|
D|----------6h8------------------------|----------6--8--8--------------11/13--|
A|--6--6-8h9------------------4h6------|--6--6-8h9----------------4-----------|
D|--------------------4--4-6h7---------|------------------4--4-6h7------------|

G|--------------6--6-------------6--6--|----------------------------11--------|
D|----------6h8------------------------|----------6--8--8--------------11/13--|
A|--6--6-8h9------------------4h6------|--6--6-8h9----------------4-----------|
D|--------------------4--4-6h7---------|------------------4--4-6h7------------|

G|--------------6--6-------------6--6--|----------------------------11--------|
D|----------6h8------------------------|----------6--8--8--------------11/13--|
A|--6--6-8h9------------------4h6------|--6--6-8h9----------------4-----------|
D|--------------------4--4-6h7---------|------------------4--4-6h7------------|


Synth Part:


Outro:

G|----------------------------------|
D|----------------------------------|
A|------4-4----4-4-----1-1-----4/6--| x 2
D|--8-8-----4-4----4-4-----4-4------|

G|--------------6--6-------------6--6--|--------------6--6----------------6/8--|
D|----------6h8------------------------|----------6h8-------------------4------|
A|--6--6-8h9------------------4h6------|--6--6-8h9------------------4-6--------|
D|--------------------4--4-6h7---------|--------------------4--4-6h7-----------|

G|--------------6--6-------------6--6--|-------------------------------|
D|----------6h8------------------------|----------6--8--8--------------|
A|--6--6-8h9------------------4h6------|--6--6-8h9------------------4--|
D|--------------------4--4-6h7---------|------------------4--4-4-6h7---|

G|--------------6--6-------------6--6--|--------------------------------6/8--|
D|----------6h8------------------------|----------6--8--8-------------4------|
A|--6--6-8h9------------------4h6------|--6--6-8h9----------------4-6--------|
D|--------------------4--4-6h7---------|------------------4--4-6h7-----------|

G|--------------6--6-------------6--6--|--------------------------------6/8--|
D|----------6h8------------------------|----------6--8--8-------------4------|
A|--6--6-8h9------------------4h6------|--6--6-8h9----------------4-6--------|
D|--------------------4--4-6h7---------|------------------4--4-6h7-----------|

Almost there ...

Sign in to get your own page with links to favourite songs and more. You are just one click away...

Login with Facebook Login with Google