Log in

One click and you are in

Login with Facebook Login with Google

Why sign up and log in

Guitar Tabs Explorer
Tame Impala bass tabs for Let it happen

Bass tabs

Intro:

G|-----------------|-----------------|-----------------|
D|-7---7---7-7---76|-----------------|-6---6---6---6---|
A|-----------------|-9---9---9-9-----|-----------6-----|
E|-----------------|-----------------|-----------------|
  i  i  i  i   i  i  i  i   i  i  i  i

G|-----------------|-----------------|-----------------|
D||7h96h7-7-7-9-7-6-|-----------------|-6---6---6---6---|
A|-----------------|-9---9---9---9---|-----------6-----|
E|-----------------|-----------9-----|-----------------|
  i  i  i  i   i  i  i  i   i  i  i  i

G|-----------------|-----------------|-----------------|
D|-7---7---7-7---76|-----------------|-6---6---6-4-6---|
A|-----------------|-9---9---9-9-9---|-----------------|
E|-----------------|-----------------|-----------------|
  i  i  i  i   i  i  i  i   i  i  i  i

G|-----------------|-----------------|-----------------||
D||7h96h7-7-7-9-7-6-|-----------------|-13------14--16--||
A|-----------------|-9---9---9---9---|-----------------||
E|-----------------|-----------9-----|-----------------||
  i  i  i  i   i  i  i  i   i  i  i  i


Verse 1

G|-----------------|-----------------|-----------------|
D|-----------------|-----------------|-6---6---6-4-6---|
A|-----------------|-9---9---9-9-9---|-----------------|
E|-5---5---5-5-7-9-|-----------------|-----------------|
  i  i  i  i   i  i  i  i   i  i  i  i

G|-----------------|-----------------|-----------------|
D||7h96h7-7-7-9-7-6-|-----------------|-6---6---6---6---|
A|-----------------|-9---9---9---9---|-----------6-----|
E|-----------------|-----------9-----|-----------------|
  i  i  i  i   i  i  i  i   i  i  i  i

G|-----------------|-----------------|-----------------|
D|-7---7---7-7---76|-----------------|-6---6---6-4-6---|
A|-----------------|-9---9---9---9---|-----------------|
E|-----------------|-----------9-----|-----------------|
  i  i  i  i   i  i  i  i   i  i  i  i

G|-----------------|-----------------|-----------------||
D||7h96h7-7-7-9-7-6-|-----------------|-6---6---6---6---||
A|-----------------|-9---9---9---9---|-----------6-----||
E|-----------------|-----------9-----|-----------------||
  i  i  i  i   i  i  i  i   i  i  i  i

Pre-chorus (fade-out)

G|-----------------|-----------------|-----------------||
D|-6---6---6---6---|-6---6---6---6---|-6---6---6---6---||
A|---6-------6-----|---6-------6-----|---6-------6-----||
E|-----------------|-----------------|-----------------||
  i  i  i  i   i  i  i  i   i  i  i  i


Chorus 1

G|-----------------|-----------------|-----------------|-----------------|
D|-----------------|-----------------|-----------------|-4---4---4-4---46|
A|-6---6---6-6-----|-2---2---2-2-2---|-4---4---4-4-----|-----------------|
E|-----------------|-----------------|-----------------|-----------------|
  i  i  i  i   i  i  i  i   i  i  i  i   i  i  i  i

G|-----------------|-----------------|-----------------|-----------------|
D|------------/11--|-9---9---9-------|-----------------|-4---4---4-4---46|
A|-6---6---6-6-----|-------------9---|-8---8---8-8-8---|-----------------|
E|-----------------|-----------------|-----------------|-----------------|
  i  i  i  i   i  i  i  i   i  i  i  i   i  i  i  i

G|-----------------|-----------------|-----------------|-----------------|
D|-----------------|-----------------|-----------------|-4---4---3-3-3---|
A|-6---6---6-6-----|-2---2---2-2-2---|-4---4---4-4-----|-----------------|
E|-----------------|-----------------|-----------------|-----------------|
  i  i  i  i   i  i  i  i   i  i  i  i   i  i  i  i

G|-----------------|-----------------|-----------------|-----------------||
D|-----------------|-------------4---|-3---------------|---------------46||
A|-6---6---6-6-6---|-2---2---2-2-----|-----------------|-4---------------||
E|-----------------|-----------------|-----------------|-----------------||
  i  i  i  i   i  i  i  i   i  i  i  i   i  i  i  i

Interlude

G|-----------------|-----------------|-----------------|
D|-7---7---7-------|-----------------|-6---6---6-4-6---|
A|-----------------|-9---9---9-7-9---|-----------------|
E|-------------7-9-|-----------------|-----------------|
  i  i  i  i   i  i  i  i   i  i  i  i

G|-----------------|-----------------|-----------8-----|
D||7h96h7-7-7-9-7-6-|-----------------|-6---6---6---6---|
A|-----------------|-9---9---9---9---|-----------------|
E|-----------------|-----------9-----|-----------------|
  i  i  i  i   i  i  i  i   i  i  i  i

G|-----------------|-----------------|-----------------||
D|-----------------|-----------------|-6---6---6---6---||
A|-----------------|-9---9---9---9---|-----------6-----||
E|-5---5---7---9---|-----------9-----|-----------------||
  i  i  i  i   i  i  i  i   i  i  i  i


Verse 2

G|-----------------|
D|-----(wait)------| (x6)
A|-----------------|
E|-----------------|
  i  i  i  i

G|-----------------|-----------------|-----------------|
D|-----------------|-----6-----------|-6---9-6---------|
A|-----------------|-9-----9---------|-----------------|
E|-5-------7----9--|-----------------|-----------------|
  i  i  i  i   i  i  i  i   i  i  i  i

G|-----------------|-----------------|-----------------|
D|-7---7--77-9-7-6-|-----------------|-----------------|
A|-----------------|-9---9---9-9-9---|-----------------|
E|-----------------|-----------------|-----------------|
  i  i  i  i   i  i  i  i   i  i  i  i

G|-----------------||
D|-----(wait)------||
A|-----------------||
E|-----------------||
  i  i  i  i


Chorus 2

G|-----------------|-----------------|-----------------|-----------------|
D|-----------------|-----------------|-----------------|-4---4---4-4---46|
A|-6---6---6-6-6\--|-2---2---2-2-2---|-4---4---4-4-4---|-----------------|
E|-----------------|-----------------|-----------------|-----------------|
  i  i  i  i   i  i  i  i   i  i  i  i   i  i  i  i

G|-----------------|-----------------|-----------------|-----------------|
D|------------/11--|-9---9---9-------|-----------------|-4---4---4-4-4---|
A|-6---6---6-6-----|-------------9---|-8---8---8-8-8---|-----------------|
E|-----------------|-----------------|-----------------|-----------------|
  i  i  i  i   i  i  i  i   i  i  i  i   i  i  i  i

G|-----------------|-----------------|-----------------|-----------------|
D|-----------------|-----------------|-----------------|-----------------|
A|-6---6---6-6---64|-2---2-----2-2---|-4---4---4-4-4---|-----------------|
E|-----------------|-----------------|-----------------|-2---2---2-2-2---|
  i  i  i  i   i  i  i  i   i  i  i  i   i  i  i  i

G|-----------------|-----------------|-----------------|-----------------||
D|------------/11--|-9---9---9-------|-----------------|-----------------||
A|-6---6---6-------|-------------9---|-8---8---8-------|-----------------||
E|-----------------|-----------------|-----------------|-----------------||
  i  i  i  i   i  i  i  i   i  i  i  i   i  i  i  i

Interlude 2

G|-----------------|-----------------|-----------------|
D|---------7-9-7-6-|---6-------------|-6-7-6---6-6-6---|
A|-0---0-----------|-9---9---9-9-9---|-----------------|
E|-----------------|-----------------|-----------------|
  i  i  i  i   i  i  i  i   i  i  i  i

G|-----------------|-----------------|-----------------||
D|---------7-9-7-6-|---6-------------|-----------------|| (x4)
A|-0---------------|-9---9---9-9-9---|---------7-6-----||
E|-----------------|-----------------|-4---4-------9-7-||
  i  i  i  i   i  i  i  i   i  i  i  i

G|-----------------|-----------------|-----------------|
D|---------7-9-7-6-|---6-------------|-6-7-6---6-6-6---|
A|-0-2h0-----------|-9---9---9-9-9---|-----------------|
E|-----------------|-----------------|-----------------|
  i  i  i  i   i  i  i  i   i  i  i  i

G|-----------------|-----------------|-----------------|
D|---------7-9-7-6-|---6-------------|-6---6---6---6---|
A|-0---0-----------|-9---9---9-9-9---|--------------7--|
E|-----------------|-----------------|---------------7-|
  i  i  i  i   i  i  i  i   i  i  i  i

G|-----------------|-----------------|-----------------|
D|-7------/7-9-7-6-|---6-------------|-6-7-6---6---6---|
A|-----------------|-9---9---9-9-9---|-----------------|
E|-----------------|-----------------|-----------------|
  i  i  i  i   i  i  i  i   i  i  i  i

G|-----------------|-----------------|-----------------||
D|-7-------7-9-7-6-|---6-------------|-6---------------||
A|-----------------|-9---9---9-9-9---|---------7-6-----||
E|-----------------|-----------------|-------------9-7-||
  i  i  i  i   i  i  i  i   i  i  i  i

G|-----------------||
D|-----------------|| (x8)
A|-----------------||
E|-5---5---5---5---||
  i  i  i  i

G|-----------------||
D|-----(wait)------|| (x32)
A|-----------------||
E|-----------------||
  i  i  i  i

G|-----------------|-----------------|-----------------|
D|---------7-9-7-6-|---6-------------|-6-7-6---6-6-6---|
A|-0---0-----------|-9---9---9-9-9---|-----------------|
E|-----------------|-----------------|-----------------|
  i  i  i  i   i  i  i  i   i  i  i  i

G|-----------------|-----------------|-----------------|
D|---------7-9-7-6-|---6-------------|-----------------|
A|-0---0-----------|-9---9---9-9-9---|---------7-6-----|
E|-----------------|-----------------|-4---4-------9-7-|
  i  i  i  i   i  i  i  i   i  i  i  i

G|-----------------|-----------------|-----------------|
D|---------7-9-7-6-|---6-------------|-6-7-6---6-6-6---|
A|-0---0-----------|-9---9---9-9-9---|-----------------|
E|-----------------|-----------------|-----------------|
  i  i  i  i   i  i  i  i   i  i  i  i

G|-----------------|-----------------|-----------------||
D|---------7-9-7-6-|---6-------------|-----------------||
A|-0---0-----------|-9---9---9-9-9---|---------7-6-----||
E|-----------------|-----------------|-4---4-----------||
  i  i  i  i   i  i  i  i   i  i  i  i


Outro

G|-----------------|-----------------|-----------------|
D|---------7-9-7-6-|---6-------------|-6-7-6---6-6-6---|
A|-0---0-----------|-9---9---9-9-9---|-----------------|
E|-----------------|-----------------|-----------------|
  i  i  i  i   i  i  i  i   i  i  i  i

G|-----------------|-----------------|-----------------||
D|---------7-9-7-6-|---6-------------|-----------------|| (x3)
A|-0---0-----------|-9---9---9-9-9---|---------7-6-----||
E|-----------------|-----------------|-4---4-------9-7-||
  i  i  i  i   i  i  i  i   i  i  i  i

G|-----------------|-----------------|-----------------|
D|---------7-9-7-6-|---6-------------|-6-7-6---6-6-6---|
A|-0---0-----------|-9---9---9-9-9---|-----------------|
E|-----------------|-----------------|-----------------|
  i  i  i  i   i  i  i  i   i  i  i  i

G|-----------------|-----------------|-----------------|
D|---------7-9-7-6-|---6-------------|-----------------|
A|-0---0-----------|-9---9---9-9-9---|---------7-6-----|
E|-----------------|-----------------|-4---4-----------|
  i  i  i  i   i  i  i  i   i  i  i  i


Solo

G|-----------------|-----------------|-----------------|
D|-----------------|-----------------|-----------------|
A|-----------------|-----------------|-----------------|
E|-5-5-------------|-2-2-------------|-4-4-------------|
  i  i  i  i   i  i  i  i   i  i  i  i

G|-----------------|-----------------|-----------------|
D|-----------------|-----------------|-----------------|
A|-----------------|-----------------|-----------------|
E|-5-5-------------|-2-2-------------|-4-4-----------4-|
  i  i  i  i   i  i  i  i   i  i  i  i

G|-----------------|-----------------|-----------------|
D|-----------------|-----------------|-----------------|
A|-----------------|-----------------|-------------7---|
E|-5-5-------------|-2-2-------------|-4-4-------------|
  i  i  i  i   i  i  i  i   i  i  i  i

G|-----------------|-----------------|-----------------||
D|-----------------|-----4-----------|-----6-----------||
A|-----------------|-----------------|-------------6\--||
E|-5-5-------------|---2-------------|---4-------------||
  i  i  i  i   i  i  i  i   i  i  i  i


Outro 2

G|-----------------|-----------------|-----------------|
D|--------/7-9-7-6-|---6-------------|-6-7-6---6-6-6---|
A|-0---0-----------|-9---9---9-9-9---|-----------------|
E|-----------------|-----------------|-----------------|
  i  i  i  i   i  i  i  i   i  i  i  i

G|-----------------|-----------------|-----------------|
D|--------/7-9-7-6-|---6-------------|-----------------|
A|-0---0-----------|-9---9---9-9-9---|---------7-6-----|
E|-----------------|-----------------|-4---4-------9-7-|
  i  i  i  i   i  i  i  i   i  i  i  i

G|-----------------|-----------------|-----------------|
D|--------/7-9-7-6-|---6-------------|-6-7-6---6-6-6---|
A|-0---0-----------|-9---9---9-9-9---|-----------------|
E|-----------------|-----------------|-----------------|
  i  i  i  i   i  i  i  i   i  i  i  i

G|-----------------|-----------------|-----------------||
D|--------/7-9-7-6-|---6-------------|-----------------||
A|-0---0-----------|-9---9---9-9-9---|-7-------7-------||
E|-----------------|-----------------|-------------9-7-||
  i  i  i  i   i  i  i  i   i  i  i  i

G|-----------------|-----------------|-----------------|
D|--------/7-9-7-6-|---6-------------|-----------------|
A|-0---0-----------|-9---9---9-9-9---|---------7-6-----|
E|-----------------|-----------------|-4---4-------9-7-|
  i  i  i  i   i  i  i  i   i  i  i  i

G|-----------------|-----------------|-----------------|
D|--------/7-9-7-6-|---6-------------|-----------------|
A|-0---0-----------|-9---9---9-9-9---|-7-------7-6-----|
E|-----------------|-----------------|-------------9-7-|
  i  i  i  i   i  i  i  i   i  i  i  i
---

G|-----------------|-----------------|-----------------|
D|-----------7---7-|-----------4---6-|-----------6---7-|
A|-----------------|-----------------|-----------------|
E|-5-5-------------|-2-2-------------|-4-4-------------|
  i  i  i  i   i  i  i  i   i  i  i  i

G|-----------------|-----------------|-------------9---|
D|-----------7---7-|-----------4---4-|---------7-6-----|
A|-----------------|-----------------|-----------------|
E|-5-5-------------|-2-2-------------|-4-4-------------|
  i  i  i  i   i  i  i  i   i  i  i  i

G|-----------------|----/6---6-4-----|-------------9---|
D|----/9---9-7---7-|---------------6-|----/7---7-6-----|
A|-----------------|-----------------|-----------------|
E|-5-5-------------|-2-2-------------|-4-4-------------|
  i  i  i  i   i  i  i  i   i  i  i  i

G|-----------------|-----------------|-------------9---||
D|----/9---9-7---7-|----/6---6-4---6-|----/7---7-6-----||
A|-----------------|-----------------|-----------------||
E|-5-5-------------|---2-------------|---4-------------||

Almost there ...

Sign in to get your own page with links to favourite songs and more. You are just one click away...

Login with Facebook Login with Google