Log in

One click and you are in

Login with Facebook Login with Google

Why sign up and log in

Guitar Tabs Explorer
Tame Impala tabs for Jeremys storm

Guitar tabs

Album:  Innerspeaker [2010]
Track:  Jeremy's Storm
---------------------------------------------------------
INTRODUCTION [MAIN RIFF]
---------------------------------------------------------

A chord diagramE MajorE --5------------3-|--5-------------3-|--2-------------0-|
A chord diagramBB ------3------3---|------3-------3---|------0-------0---|
A chord diagramG+G ----------3h5----|----------3h5-----|----------0h2-----|
Eb-----------------|------------------|------------------|
A chord diagramA augmentedA -----------------|------------------|------------------|
Eb--4-4---4--------|--4-4---4---------|--4-4---4---------|
A chord diagramE MajorE --2------------0-|------------------|------------------|
A chord diagramBB ------0------0---|--3---------------|--4---------------|
A chord diagramG+G ----------0h2----|--------3----0----|--------3----0----|
Eb-----------------|----------------0-|----------------0-|
A chord diagramA augmentedA -----------------|--1--1----1---1---|------------------|
Eb--4-4---4--------|------------------|--0--0----0---0---|


A chord diagramE MajorE -----------------|----------------4-|
A chord diagramBB -----------------|------------4-----|
A chord diagramG+G --8--------5-----|-------5----------|
Eb------7--------5-|--3---------------|
A chord diagramA augmentedA -----------------|------------------|
Eb--5-5---5----5---|--5--5---5----5---|

Almost there ...

Sign in to get your own page with links to favourite songs and more. You are just one click away...

Login with Facebook Login with Google