Log in

One click and you are in

Login with Facebook Login with Google

Why sign up and log in

Guitar Tabs Explorer
Tame Impala bass tabs for Feels like we only go backwards

Feels Like We Only Go Backwards bass tab - Tame Impala

Tame Impala bass tabs for Feels like we only go backwards

Bass tabs

Tame Impala ///// Feels Like We Only Go Backwards ///// Lonerism

Bass Tab
Intro
G||-----------------------||
D||-----------------------||
A||-10\--10\--10\--10\----||
E||-----------------------||


Chorus1
G||---------------------------------------------|
D||---------8-9-10-10---10----------------------|
A||-----8-8------------------10-10------10-10---|
E||-----------------------------------10--------|

G||-----------------------------------------------|
D||------8-9-10-10--10/12-------------------------|
A||--8-8------------------10-10----10--10--10--10-|
E||------------------------------10--10------10---|

G||-----------------------12-12----12---14--10--|
D||------8-9-10-10--10/12--------12--12---------|
A||--8-8----------------------------------------|
E||---------------------------------------------|

G||---------------------------------------------||
D||------8-9-10-10--10--8-8-----8--12\----------||
A||--8-8----------------------10-10--------10/--||
E||---------------------------------------------||


Verse1
G||----------------7--7----7---7-|
D||--------------7-------7---7---|
A||-5--5--5-5--5-----------------|
E||------------------------------|

G||-7-----------------------------------------|
D||--7-5-5-5-----------5-5-5------------------|
A||----------3-3--2h3---------3-3--2h3--2-3-4-|
E||-------------------------------------------|

G||----------------7--7--------|
D||--------------7-------------|
A||-5--5----5--5---------5--5--|
E||-------5--------------------|

G||----------------------------||
D||-3---5--5--5-5-5-5---5------||
A||----------------------------||
E||----------------------------||


Chorus2
G||------------------------------------------|
D||------8-9-10-10---10----------------------|
A||--8-8------------------10-10------10-10---|
E||--------------------------------10--------|

G||-----------------------------------------------|
D||------8-9-10-10--10/12-------------------------|
A||--8-8------------------10-10----10--10--10--10-|
E||------------------------------10--10------10---|

G||-----------------------12-12----12---14--10--|
D||------8-9-10-10--10/12--------12--12---------|
A||--8-8----------------------------------------|
E||---------------------------------------------|

G||---------------------------------------||
D||------8-9-10-10--10--8-8-----8---------||
A||--8-8----------------------10-10-10----||
E||---------------------------------------||


Verse2
G||----------------7--7----7---7-|
D||--------------7-------7---7---|
A||-5--5--5-5--5-----------------|
E||------------------------------|

G||-7-----------------------------------------|
D||--7-5-5-5-----------5-5-5------------------|
A||----------3-3--2h3---------3-3--2h3--2-3-4-|
E||-------------------------------------------|

G||----------------7--7--------|
D||--------------7-------------|
A||-5--5----5--5---------5--5--|
E||-------5--------------------|

G||----------------------------||
D||-3---5--5--5-5-5-5----------||
A||----------------------------||
E||----------------------------||


Chorus /// Outro
G||------------------------------------------|
D||------8-9-10-10---10----------------------|
A||--8-8------------------10-10------10-10---|
E||--------------------------------10--------|

G||-----------------------------------------------|
D||------8-9-10-10--10/12-------------------------|
A||--8-8------------------10-10----10--10--10--10-|
E||------------------------------10--10------10---|

G||-----------------------12-12----12---14--10--|
D||------8-9-10-10--10/12--------12--12---------|
A||--8-8----------------------------------------|
E||---------------------------------------------|

G||---------------------------------------||
D||------8-9-10-10--10-10--8-8------------||
A||--8-8----------------------------------||
E||---------------------------------------||


G||------------------------------------------|
D||------8-9-10-10--10/12--------------------|
A||--8-8------------------10-10------10-10---|
E||--------------------------------10--------|

G||-------------------------------------------12--|
D||------8-9-10-10--10/12------------------12-----|
A||--8-8------------------10-10----10--10---------|
E||------------------------------10---------------|

G||-----------------14--10--------------------------|
D||------8-9-10-10---------12-10-12-----------------|
A||--8-8----------------------------10-10------8-10-|
E||---------------------------------------8-10------|

G||----------------------------------------||
D||------8-9-10-10--10/12--8-8--8-8-8-8--8-||
A||--8-8-----------------------------------||
E||----------------------------------------||


G||------------------------------------------|
D||------8-9-10-10---10----------------------|
A||--8-8------------------10-10------10-10---|
E||--------------------------------10--------|

G||-----------------------------------------------|
D||------8-9-10-10--10/12-------------------------|
A||--8-8------------------10-10----10--10--10--10-|
E||------------------------------10--10------10---|

G||-----------------------12-12----12---14--10--|
D||------8-9-10-10--10/12--------12--12---------|
A||--8-8----------------------------------------|
E||---------------------------------------------|

G||---------------------------------------||
D||------8-9-10-10--10--8-8-----8---------||
A||--8-8----------------------10-10-10----||
E||---------------------------------------||


My best interpretation of the song. enjoy.

Almost there ...

Sign in to get your own page with links to favourite songs and more. You are just one click away...

Login with Facebook Login with Google