Log in

One click and you are in

Login with Facebook Login with Google

Why sign up and log in

Guitar Tabs Explorer
Tame Impala bass tabs for Endors toi

Bass tabs

0:14:

G|---------------------------------------------------------------------------|
D|---------------------------------------------------------------------------|
A|-10--------13-------------------11------------------13------------------11-|
E|---------------------11----------------11-13------------------11-----------|

G|---------------------------------------------------------------------------|
D|---------------------------------------------------------------------------|
A|--------------------------------11---/15------------13------------------11-|
E|---------------------11-------------------13------------------11-----------|

G|---------------------------------------------------------------------------|
D|---------------------------------------------------------------------------|
A|-10-----------------------------11---/15---15-------13------------------11-|
E|-----------13--------11---------------------------------------11-----------|

G|---------------------------------------------------------------------------|
D|---------------------------------------------------------------------------|
A|-10-----------------------------11---/15------------13-----11-10---11/13-11|
E|-----------13--------11--------------------13------------------------------|

G|---------------------------------------------------------------------------|
D|---------------------------------------------------------------------------|
A|-10--------13-------------------11------------------13------------------11-|
E|---------------------11----------------11-13------------------11-----------|

   1:29: Lyrics start

G|---------------------------------------------------------------------------|
D|---------------------------------------------------------------------------|
A|-10-----------------------------11---/15------------13---13-13----------11-|
E|-----------13--------11--------------------13-----------------11-----------|

G|---------------------------------------------------------------------------|
D|---------------------------------------------------------------------------|
A|-10-----------------------------11---/15---15-------13--------10--------11-|
E|-----------13--------11----------------------------------------------------|

   1:58:

G|---------------------------------------------------------------------------|
D|-------------------------14------------------------15-15-17----------------|
A|-------------10-10-10-------8--8\--------6---6/-13-----------13-11--11\----|
E|--3---3--/10---------------------------------------------------------------|

G|------------------15-------------------------------------------------------|
D|------------15-17----------------------------------------------------------|
A|--8---8/-13-----------15-13--13\----6---6---6-8-10-11----------------------|
E|---------------------------------------------------------------------------|

G|---------------------------------------------------------------------------|
D|-------------------------14------------------------15-15-17----------------|
A|-------------10-10-10-------8--8\--------6---6/-13-----------13-11--11\----|
E|--3---3--/10---------------------------------------------------------------|

G|------------------15-------------------------------------------------------|
D|------------15-17----------------------------------------------------------|
A|--8---8/-13-----------15-13--13\----10---10---6-8-10-11---11-11---11-------|
E|---------------------------------------------------------------------------|

G|---------------------------------------------------------------------------|
D|-------------------------14------------------------15-15-17----------------|
A|-------------10-10-10-------8--8\--------6---6/-13-----------13-11--11\----|
E|--3---3--/10---------------------------------------------------------------|

G|------------------15-------------------------------------------------------|
D|------------15-17----------------------------------------------------------|
A|--8---8/-13-----------15-13--13\----6---6---10-11-10-11---11-11--11--------|
E|---------------------------------------------------------------------------|

G|---------------------------------------------------------------------------|
D|-------------------------14------------------------15-15-17----------------|
A|-------------10-10-10-------8--8\--------6---6/-13-----------13-11--11\----|
E|--3---3--/10---------------------------------------------------------------|

G|------------------15-------------------------------------------------------|
D|------------15-17----------------------------------------------------------|
A|--8---8/-13-----------15-13--13\----6---6---6-8-10-11--11-11---13--11-10---|
E|---------------------------------------------------------------------------|

Almost there ...

Sign in to get your own page with links to favourite songs and more. You are just one click away...

Login with Facebook Login with Google