Log in

One click and you are in

Login with Facebook Login with Google

Why sign up and log in

Guitar Tabs Explorer
Tame Impala bass tabs for Disciples

Bass tabs

-------------------------------------------------------------------------------
               Disciples - Tame Impala
-------------------------------------------------------------------------------
Tabbed by: A$APROACH

Another awesome song from Tame Impala's Album "Currents." Enjoy!
Tuning: Standard

G|-----------------8---------------------------------------------------------|
D|---------------8---------5/10-10-10-10-10-10-------------------------------|
A|88-----------6-------------------------------------------------------------|
E|---6~-66-666-------8-88----------------------------------------------------|

G|---------------------------------------------------------------------------|
D|-----8-----------8---------------------------------------------------------|
A|8-10-----------------------------------------------------------------------|
E|-------6-66-66-66---33---8-88-88-88-12-------------------------------------|
_______________________Play these two lines above twice._____________________

0:31 synth comes in

G|-----------------8---------------------------------------------------------|
D|---------------8---------5/10-10-10-10-10-10-------------------------------|
A|88-----------6-------------------------------------------------------------|
E|---6~-66-666-------8-88----------------------------------------------------|

G|---------------------------------------------------------------------------|
D|-----8-----------8---------------------------------------------------------|
A|8-10-----------------------------------------------------------------------|
E|-------6-66-66-66---33---8-88-8888-*click*---------------------------------|

0:45 "Now it's..."

G|-----------------8---------------------------------------------------------|
D|---------------8---------5/10-10-10-10-10-10-------------------------------|
A|88-----------6-------------------------------------------------------------|
E|---6~-66-666-------8-88----------------------------------------------------|

G|---------------------------------------------------------------------------|
D|-----8-----------8---------------------------------------------------------|
A|8-10-----------------------------------------------------------------------|
E|-------6-66-66-66---33---8-88-8888-----------------------------------------|

1:01 "...and I had no idea"

G|-----------------8---------------------------------------------------------|
D|---------------8---------5/10-10-10-10-10-10-------------------------------|
A|88-----------6-------------------------------------------------------------|
E|---6~-66-666-------8-88----------------------------------------------------|

G|---------------------------------------------------------------------------|
D|-----8-----------8---------------------------------------------------------|
A|8-10-----------------------------------------------------------------------|
E|-------6-66-66-66---33---8-88-88-88-12-------------------------------------|

1:16 "...I used to take"

G|-----------------8---------------------------------------------------------|
D|---------------8---------5/10-10-10-10-10-10-------------------------------|
A|88-----------6-------------------------------------------------------------|
E|---6~-66-666-------8-88----------------------------------------------------|

G|---------------------------------------------------------------------------|
D|-----8-----------8---------------------------------------------------------|
A|8-10-----------------------------------------------------------------------|
E|-------6-66-66-66---33---8-88-88888-*click*--------------------------------|

1:31 Huge Decrescendo towards the end of phrase

G|-----------------8---------------------------------------------------------|
D|---------------8---------5/10-10-10-10-10-10-------------------------------|
A|88-----------6-------------------------------------------------------------|
E|---6~-66-666-------8-88----------------------------------------------------|

G|---------------------------------------------------------------------------|
D|-----8-----------8---------------------------------------------------------|
A|8-10-----------------------------------------------------------------------|
E|-------6-66-66-66---33---8-88-88-88-12-------------------------------------|

| / slide up
| \ slide down
| h hammer-on
| p pull-off
| ~ vibrato
| + harmonic
| x Mute note

Almost there ...

Sign in to get your own page with links to favourite songs and more. You are just one click away...

Login with Facebook Login with Google