Log in

One click and you are in

Login with Facebook Login with Google

Why sign up and log in

Guitar Tabs Explorer
Tame Impala bass tabs for Breathe deeper

Bass tabs

Tuning: Drop D (D A D G)


Intro:

G|-------------------|-------------------|-------------------|-------------------|
D|-------------------|-------------------|-------------------|-------------------|
A|-5-4-2-4---5---5/7-|-5-4-2-4---5---5/7-|-5-4-2-4---5---5/7-|-5-4-2-4---5---5/7-|
D|-------------------|-------------------|-------------------|-------------------|

G|-------------------|-------------------|-------------------|-------------------|
D|-------------------|-------------------|-------------------|-------------------|
A|-5-4-2-4---5---5/7-|-5-4-2-4---5---5/7-|-5-4-2-4---5---5/7-|-5-4-2-4---5---5/7-|
D|-------------------|-------------------|-------------------|-------------------|

Break for 8 measures:


Verse 1: Start on '... think I couldn't roll with you, believe me, I can'

G|-------------------|-------------------|-------------------|-------------------|
D|-------------------|-------------------|-------------------|-------------------|
A|-5-4-2-4---5---5/7-|-5-4-2-4---5---5/7-|-5-4-2-4---5---5/7-|-5-4-2-4---5---5/7-|
D|-------------------|-------------------|-------------------|-------------------|

G|-------------------|-------------------|-------------------|-------------------|
D|-------------------|-------------------|-------------------|-------------------|
A|-5-4-2-4---5---5/7-|-5-4-2-4---5---5/7-|-5-4-2-4---5---5/7-|-5-4-2-4-----------|
D|-------------------|-------------------|-------------------|-------------------|


Pre-Chorus:

G|-------------------|-------------------|-------------------|-------------------|
D|-------------------|-------------------|5/7\5--------------|-------------------|
A|-------------------|-----5-4-2-0-------|-------------------|-----9-7-5-4-------|
D|-5~----5-5~--------|---------------5-4-|---------5-5~------|-----------------4-|

G|-------------------|-------------------|-------------------|-------------------|
D|-------------------|-------------------|5/7\5--------------|-------------------|
A|-------------------|-----5-4-2-0-------|-------------------|-----9-7-5-4-----2-|
D|-5~----5-5~--------|---------------5-4-|---------5-5~------|-------------------|


Chorus:

G|-------------------|-------------------|-------------------|-------------------|
D|-------------------|-------------------|5/7\5--------------|-------------------|
A|-------------------|-----5-4-2-0-------|-------------------|-----9-7-5-4-------|
D|-5~----5-5~--------|---------------5-4-|---------5-5~------|-----------------4-|

G|-------------------|-------------------|-------------------|-------------------|
D|-------------------|-------------------|5/7\5--------------|-------------------|
A|-------------------|-----5-4-2-0-------|-------------------|-----9-7-5-4-----2-|
D|-5~----5-5~--------|---------------5-4-|---------5-5~------|-------------------|


Pre-Verse 2:

G|-------------------|-------------------|-------------------|-------------------|
D|-------------------|-------------------|-------------------|-------------------|
A|-5-4-2-4---5---5/7-|-5-4-2-4---5---5/7-|-5-4-2-4---5---5/7-|-5-4-2-4---5---5/7-|
D|-------------------|-------------------|-------------------|-------------------|

G|-------------------|-------------------|-------------------|-------------------|
D|-------------------|-------------------|-------------------|-------------------|
A|-5-4-2-4---5---5/7-|-5-4-2-4---5---5/7-|-5-4-2-4---5---5/7-|-5-4-2-4---5---5/7-|
D|-------------------|-------------------|-------------------|-------------------|


Break for 8 measures:


Verse 2: Start on '... need someone to carry on, believe me, I can'

G|-------------------|-------------------|-------------------|-------------------|
D|-------------------|-------------------|-------------------|-------------------|
A|-5-4-2-4---5---5/7-|-5-4-2-4---5---5/7-|-5-4-2-4---5---5/7-|-5-4-2-4---5---5/7-|
D|-------------------|-------------------|-------------------|-------------------|

G|-------------------|-------------------|-------------------|-------------------|
D|-------------------|-------------------|-------------------|-------------------|
A|-5-4-2-4---5---5/7-|-5-4-2-4---5---5/7-|-5-4-2-4---5---5/7-|-5-4-2-4-----------|
D|-------------------|-------------------|-------------------|-------------------|


Pre-Chorus:

G|-------------------|-------------------|-------------------|-------------------|
D|-------------------|-------------------|5/7\5--------------|-------------------|
A|-------------------|-----5-4-2-0-------|-------------------|-----9-7-5-4-------|
D|-5~----5-5~--------|---------------5-4-|---------5-5~------|-----------------4-|

G|-------------------|-------------------|-------------------|-------------------|
D|-------------------|-------------------|5/7\5--------------|-------------------|
A|-------------------|-----5-4-2-0-------|-------------------|-----9-7-5-4-----2-|
D|-5~----5-5~--------|---------------5-4-|---------5-5~------|-------------------|


Chorus:

G|-------------------|-------------------|-------------------|-------------------|
D|-------------------|-------------------|5/7\5--------------|-------------------|
A|-------------------|-----5-4-2-0-------|-------------------|-----9-7-5-4-------|
D|-5~----5-5~--------|---------------5-4-|---------5-5~------|-----------------4-|

G|-------------------|-------------------|-------------------|-------------------|
D|-------------------|-------------------|5/7\5--------------|-------------------|
A|-------------------|-----5-4-2-0-------|-------------------|-----9-7-5-4-----2-|
D|-5~----5-5~--------|---------------5-4-|---------5-5~------|-------------------|


Break for 4 measures:


[Bridge

G|-------------------|-------------------|-------------------|---------------|
D|-------------------|-------------------|-------------------|---------------|
A|-------------------|-------------------|-------------------|---------------|
D|-7/9~--------------|--------9/11--11\4/|5~-----------------|---------5\4/7-|

G|-------------------|-------------------|-------------------|---------------|
D|-------------------|-------------------|-------------------|---------------|
A|-------------------|-------------------|-------------------|---------------|
D|-7/9~--------------|--------9/11--11\4/|5~-----------------|---------5/7\4-|

G|-------------------|-------------------|-------------------|---------------|
D|-------------------|-------------------|-------------------|---------------|
A|-------------------|-------------------|-------------------|---------------|
D|-7/9~--------------|--------9/11--11\4/|5~-----------------|---------5\4/7-|

G|-------------------|-------------------|-------------------|---------------|
D|-------------------|-------------------|-------------------|---------------|
A|-------------------|-------------------|-------------------|---------------|
D|-7/9~--------------|--------9/11--11\4/|5~-----------------|---------5\4/7-|

G|-------------------|-------------------|-------------------|---------------|
D|-------------------|-------------------|-------------------|---------------|
A|-------------------|-------------------|-------------------|---------------|
D|-7/9~--------------|--------9/11--11\4/|5~-----------------|---------5\4/7-|

G|-------------------|-------------------|-------------------|---------------|
D|-------------------|-------------------|-------------------|---------------|
A|-------------------|-------------------|-------------------|---------------|
D|-7/9~--------------|--------9/11--11\4/|5~-----------------|---------5\4/7-|

G|-------------------|-------------------|-------------------|---------------|
D|-------------------|-------------------|-------------------|---------------|
A|-------------------|-------------------|-------------------|---------------|
D|-7/9~--------------|--------9/11--11\4/|5~-----------------|---------5\4/7-|

G|-------------------|-------------------|-------------------|---------------|
D|-------------------|-------------------|-------------------|---------------|
A|-------------------|-------------------|-------------------|---------------|
D|-7/9~--------------|--------9/11--11\4/|5~-----------------|---------5\4/7-|

G|-------------------|-------------------|-------------------|---------------|
D|-------------------|-------------------|-------------------|---------------|
A|-------------------|-------------------|-------------------|---------------|
D|-7/9~--------------|--------9/11--11\4/|5~-----------------|---------5\4/7-|

G|-------------------|-------------------|-------------------|---------------|
D|-------------------|-------------------|-------------------|---------------|
A|-------------------|-------------------|-------------------|---------------|
D|-7/9~--------------|--------9/11--11\4/|5~-----------------|---------5\4/7-|


Interlude:

G|------------------|-------7----7-7/9~-|------------------|-------7----7/9~-|
D|-----7-----9---11-|-----5----7--------|---7-------9---11-|-----5----7------|
A|---7-----9---9----|---5---------------|---------9---9----|---5-------------|
D|-7-----9----------|-5-----------------|-7---7-9----------|-5---------------|

G|------------------|-------7----7-7/9~-|------------------|-------7----7/9~-|
D|-----7-----9---11-|-----5----7--------|---7-------9---11-|-----5----7------|
A|---7-----9---9----|---5---------------|---------9---9----|---5-------------|
D|-7-----9----------|-5-----------------|-7---7-9----------|-5---------------|


Outro:

G|-------------------|-------------------|-------------------|-------------------|
D|-------------------|-------------------|5/7\5--------------|-------------------|
A|-------------------|-----5-4-2-0-------|-------------------|-----9-7-5-4-----2-|
D|-5~----------------|---------------5-4-|---------5-5~------|-------------------|

G|-------------------|-------------------|-------------------|-------------------|
D|-------------------|-------------------|5/7\5--------------|-------------------|
A|-------------------|-----5-4-2-0-------|-------------------|-----9-7-5-4-----2-|
D|-5~----5-5~--------|---------------5-4-|---------5-5~------|-------------------|

G|-------------------|-------------------|-------------------|-------------------|
D|-------------------|-------------------|5/7\5--------------|-------------------|
A|-------------------|-----5-4-2-0-------|-------------------|-----9-7-5-4-----2-|
D|-5~----5-5~--------|---------------5-4-|---------5-5~------|-------------------|

G|-------------------|-------------------|-------------------|-------------------|
D|-------------------|-------------------|5/7\5--------------|-------------------|
A|-------------------|-----5-4-2-0-------|-------------------|-----9-7-5-4-----2-|
D|-5~----5-5~--------|---------------5-4-|---------5-5~------|-------------------|

G|-------------------|-------------------|-------------------|-------------------|
D|-------------------|-------------------|5/7\5--------------|-------------------|
A|-------------------|-----5-4-2-0-------|-------------------|-----9-7-5-4-----2-|
D|-5~----5-5~--------|---------------5-4-|---------5-5~------|-------------------|

G|-------------------|-------------------|-------------------|-------------------|
D|-------------------|-------------------|5/7\5--------------|-------------------|
A|-------------------|-----5-4-2-0-------|-------------------|-----9-7-5-4-----2-|
D|-5~----5-5~--------|---------------5-4-|---------5-5~------|-------------------|


************************************

| /  Slide up
| \  Slide down
| ~  Let ring

************************************

Almost there ...

Sign in to get your own page with links to favourite songs and more. You are just one click away...

Login with Facebook Login with Google