Log in

One click and you are in

Login with Facebook Login with Google

Why sign up and log in

Guitar Tabs Explorer
Tamaryn bass tabs for Return to sender

Bass tabs

Tamaryn - Return to Sender
Led Astray Washed Ashore


Intro: 0:01
G|-----------------|
D|-----------------|
A|-7~---5~---3~----| x4
E|-----------------|
Verse: 0:33
G|---------------------------------------------------------------------------|
D|---------------------------------------------------------------------------|
A|-12--12-12-12--12-12-12--12-12-12--12-12-10--10-10-10--10-10-9--9-9-9--9-9-| x4
E|---------------------------------------------------------------------------|


Chorus: 1:05
G|---------------------------------------------------------------------------|
D|-12--12-12-12--12-12-----------------------------------10--10-10-10--10-10-|
A|---------------------8--8-8-8--8-8-12--12-12-12--12-12---------------------|
E|---------------------------------------------------------------------------|

G|---------------------10--10-10-10--10-10-----------------------------------|
D|-12--12-12-12--12-12-------------------------------------------------------|
A|-----------------------------------------12--12-12-12--12-12---------------|
E|-------------------------------------------------------------8--8-8-8--8-8-|

G|---------------------------------------------------------------------------|
D|-12--12-12-12--12-12-----------------------------------10--10-10-10--10-10-|
A|---------------------8--8-8-8--8-8-12--12-12-12--12-12---------------------|
E|---------------------------------------------------------------------------|

G|---------------------10--10-10-10--10-10-----------------------------------|
D|-12--12-12-12--12-12-------------------------------------------------------|
A|-----------------------------------------12--12-12-12--12-12---------------|
E|-------------------------------------------------------------8--8-8-8--8-8-|

Verse: 1:38
G|---------------------------------------------------------------------------|
D|---------------------------------------------------------------------------|
A|-12--12-12-12--12-12-12--12-12-12--12-12-10--10-10-10--10-10-9--9-9-9--9-9-| x4
E|---------------------------------------------------------------------------|


Chorus: 2:10
G|---------------------------------------------------------------------------|
D|-12--12-12-12--12-12-----------------------------------10--10-10-10--10-10-|
A|---------------------8--8-8-8--8-8-12--12-12-12--12-12---------------------|
E|---------------------------------------------------------------------------|

G|---------------------10--10-10-10--10-10-----------------------------------|
D|-12--12-12-12--12-12-------------------------------------------------------|
A|-----------------------------------------12--12-12-12--12-12---------------|
E|-------------------------------------------------------------8--8-8-8--8-8-|

G|---------------------------------------------------------------------------|
D|-12--12-12-12--12-12-----------------------------------10--10-10-10--10-10-|
A|---------------------8--8-8-8--8-8-12--12-12-12--12-12---------------------|
E|---------------------------------------------------------------------------|

G|---------------------10--10-10-10--10-10-----------------------------------|
D|-12--12-12-12--12-12-------------------------------------------------------|
A|-----------------------------------------12--12-12-12--12-12---------------|
E|-------------------------------------------------------------8--8-8-8--8-8-|

Pause


Outro: 3:13 (repeated till fade out end)
G|-------------------------------------------------------------------------------|
D|-12--12-12-12--12-12-----------------------------------10-10-10-10-10-10-10-10-|
A|---------------------8--8-8-8--8-8-12--12-12-12--12-12-------------------------|
E|-------------------------------------------------------------------------------|

G|-------------------------10--10-10-10--10-10-------------------------------------|
D|-12-12-12-12-12-12-12-12---------------------------------------------------------|
A|---------------------------------------------12--12-12-12--12-12-----------------|
E|-----------------------------------------------------------------8-8-8-8-8-8-8-8-|


************************************

| ~  Vibrato

Almost there ...

Sign in to get your own page with links to favourite songs and more. You are just one click away...

Login with Facebook Login with Google